PrimaNota.ru - самый крупный в мире бесплатный архив песенных текстов, аккордов, табулатур и нот


Tronic - Patriota - бас-таба, видео

Регистрация Запомнить меня
Войти через:  Facebook Google Twitter Vk Yandex Mail.ru

Tronic - Patriota - бас-таба, видео

Печатать
Просмотров: 98
Уроки эстрадного вокала в Санкт-Петербурге
++++++++++++++++++++
| Tronic- Patriota |
++++++++++++++++++++


"Que canten y escriban sin importar si venderan..."

Tuning: EADG


Intro
1.
G|---------------------------------------------------|
D|---------------------------------------------------|
A|----------4~----------4------------4~----------4---|
E|--55--55------55--55----5--55--55------55--55----5-|

Verse
"Tenemos cordillera, desierto y mucho mar..."
2.
G|--------------------------------------|
D|-----77777777-77777777-66666666-------|
A|-5-7----------------------------5-7---|
E|--------------------------------------|

Pre-Chorus
"Amigo chileno..."
3.
G|---------------------------------|
D|-444-------------444-------------|
A|-----555-----777-----555-----777-|
E|---------555-------------555-----|

"Falta patriotismo..."
4.
G|-------------------------------------------------------|
D|-44x---------------------------------------------------|
A|------55x-------777-44444444-44444444-22222222-5-5-5-5-|
E|-----------5-5-----------------------------------------|

Chorus
"Hechamos demenos..."
5.
G|-------------------------------------------------------------------------|
D|-------------------44444444----------------------------44444444----------|
A|----------55555555----------55555555----------55555555----------55555555-|
E|-55555555----------------------------55555555----------------------------|

Outro
6.
G|---------------------------------------------------|
D|---------------------------------------------------|
A|----------4~----------4------------4~----------4---|
E|--55--55------55--55----5--55--55------55--55----5-|

Verse
"Siempre la gente imitando lo que no es nacional..."
7.
G|--------------------------------------|
D|-----77777777-77777777-66666666-------|
A|-5-7----------------------------5-7---|
E|--------------------------------------|

Pre-Chorus
"Amigo chileno..."
8.
G|---------------------------------|
D|-444-------------444-------------|
A|-----555-----777-----555-----777-|
E|---------555-------------555-----|

"Falta patriotismo..."
9.
G|-------------------------------------------------------|
D|-44x---------------------------------------------------|
A|------55x-------777-44444444-44444444-22222222-5-5-5-5-|
E|-----------5-5-----------------------------------------|

Chorus
"Hechamos demenos..."
10.
G|-------------------------------------------------------------------------|
D|-------------------44444444----------------------------44444444-4--------|
A|----------55555555----------55555555----------55555555-----------5~------|
E|-55555555----------------------------55555555----------------------------|

"Don Richi..."
11.
G|-------------------------------------------------------------------------|
D|-------------------44444444----------------------------44444444-66666666-|
A|----------55555555----------55555555----------55555555-------------------|
E|-55555555----------------------------55555555----------------------------|

Bridge
12.
G|-------------------------------------------------------------------------|
D|-------------------------------------------------------------------------|
A|-55555555-55555555-44444444-44444444-------------------55555555-55555555-|
E|-------------------------------------22222222-55555555-------------------|

13.
G|-------------------------------------------------------------------------|
D|-------------------------7-----------------------------------------------|
A|-77777777-77777777-999999---77777777-55555555-55555555--9-9-9--7-7-7-----|
E|-------------------------------------------------------------------------|

14.
G|-----------------------|
D|-----------------------|
A|----------4------------|
E|--55--55----5--55--55x-|

Chorus
"Hechamos demenos..."
15.
G|-------------------------------------------------------------------------|
D|-------------------44444444----------------------------44444444----------|
A|----------55555555----------55555555----------55555555----------55555555-|
E|-55555555----------------------------55555555----------------------------|

"Don Richi..."
16.
G|-------------------------------------------------------------------------|
D|-------------------44444444----------------------------44444444-44444444-|
A|----------55555555----------55555555----------55555555-------------------|
E|-55555555----------------------------55555555----------------------------|

Outro
17.
G|--------------------------|
D|--------------------------|
A|----------4~----------4---|
E|--55--55------55--55----5-|


Lyrics:


Cansao estoy de escuchar que todo, todo esta mal
Tenemos cordillera, desierto y mucho mar
Un tenista mundial, un futbolista bacan
Y poetas que escriben sobre lo nacional

Amigo chileno
Porque siempre prefieres
Todo lo que sea extranjero
Falta patriotismo
Y menos cinismo
Creerse el cuento
Esta rebueno

Hechamos demenos artistas de verdad
Que canten y escriban sin importar si venderan

Inventar no es copiar, falta creatividad
Siempre la gente imitando lo que no es nacional
Necesitamos uni
Добавлено: 07.11.2013
Другие материалы по этой песне:

Страница создана 07.11.2013
http://primanota.ru/tronic/patriota-chords.htm
Привет, Гость.
Предлагаем пройти революционный курс по гитаре.
Подарок от PrimaNota.Ru, забирай!