PrimaNota.ru - самый крупный в мире бесплатный архив песенных текстов, аккордов, табулатур и нот


Tronic - Mucho Humo - таба, бас-таба, видео

Регистрация Запомнить меня
Войти через:  Facebook Google Twitter Vk Yandex Mail.ru

Tronic - Mucho Humo - таба, бас-таба, видео

Печатать
Просмотров: 46
ESTE TEMA ES FACIL SOLO TIENEN Q CAXAR LOS TIEMPO
DE LA CANCION Y LOS RASGEOS SON RAPIDO
HAY ETA LA WEA  OJALA QUE LE GUSTE
_____T_R_o_n_i_c______
e---------------------------------------|
B---------------------------------------|
G--5----------7-------------------------|
D--5-x5--5----7-x5--7-------------------|
A--3-----5-x5-5-----7-x5----------------|
E--------3----------5-------------------|
mucho humo en la discotec
e----------------------------------------|
B----------------------------------------|
G--5----------7--------------------------|
D--5-x5--5----7--------------------------|KEDA MARCANDO ESTA NOTA
A--3-----5-x5-5--------------------------|
E--------3-------------------------------|
ya no quiero ir nunca mas
e---------------------------------------|
B---------------------------------------|
G--5----------7-------------------------|
D--5-x5--5----7-x5--7-------------------|
A--3-----5-x5-5-----7-x5----------------|
E--------3----------5-------------------|
buscamos chicas que sean distinta
e----------------------------------------|
B----------------------------------------|
G--5----------7--------------------------|
D--5-x5--5----7--------------------------|KEDA MARCANDO ESTA NOTA
A--3-----5-x5-5--------------------------|
E--------3-------------------------------|
que nos quieran sekotear


palm-mute
e---------------------------------------------------|
B---------------------------------------------------|
G----------77-7--88-88-8-77-7-5---------------------|
D-77--7-88-77-7--88-88-8-77-7-5---------------------|KEDA MARCANDO ESTA NOTA
A-77--7-88-55-5--66-66-6-55-5-3---------------------|
E-55--5-66------------------------------------------|
y por las noches nos transformamos
siempre keremos videar

e-----------------------------------------------------|
B-----------------------------------------------------|
G----------77-7--88-88-8-77-7-5-------------------7---|
D-77--7-88-77-7--88-88-8-77-7-5-X5 Y SE DESLISA A-7X5-|
A-77--7-88-55-5--66-66-6-55-5-3-------------------5---|
E-55--5-66--------------------------------------------|
kon la del diablo por la vereda
te podemos atrapar

_______KORO________


e |--------------|
B |--------------|
G |-------7------|
D |--5----7-X5---|
A |--5X5--5------|
E |--3-----------|
Si tu kerí venir konmigo

e |--------------|
B |--------------|
G |-------5------|
D |--9----5-X5---|
A |--9X5--3------|
E |--7-----------|
te voy a dar un lión total
e |--------------|
B |--------------|
G |-------7------|
D |--5----7-X5---|
A |--5X5--5------|
E |--3-----------|
supongo ke tomai pastillas
e |--------------|
B |--------------|
G |-------5------|
D |--9----5-X10--|
A |--9X5--3------|
E |--7-----------|
o a la farmacia hay ke pasar

e---------------------------------------|
B---------------------------------------|
G--5----------7-------------------------|
D--5-x5--5----7-x5--7-------------------|
A--3-----5-x5-5-----7-x5----------------|
E--------3----------5-------------------|
Te estoy dando, te estoy dando
e----------------------------------------|
B----------------------------------------|
G--5----------7--------------------------|
D--5-x5--5----7--------------------------|KEDA MARCANDO ESTA NOTA
A--3-----5-x5-5--------------------------|
E--------3-------------------------------|
disfrutando sin parar
e---------------------------------------|
B---------------------------------------|
G--5----------7-------------------------|
D--5-x5--5----7-x5--7-------------------|
A--3-----5-x5-5-----7-x5----------------|
E--------3----------5-------------------|
ahora mierda la metralleta
e----------------------------------------|
B----------------------------------------|
G--5----------7--------------------------|
D--5-x5--5----7--------------------------|KEDA MARCANDO ESTA NOTA
A--3-----5-x5-5--------------------------|
E--------3-------------------------------|
mi kaballo va a explotar


palm-mute
e---------------------------------------------------|
B---------------------------------------------------|
G----------77-7--88-88-8-77-7-5---------------------|
D-77--7-88-77-7--88-88-8-77-7-5---------------------|KEDA MARCANDO ESTA NOTA
A-77--7-88-55-5--66-66-6-55-5-3---------------------|
E-55--5-66------------------------------------------|
ahora guachita si no akabaste
el spider se vendrá

e-----------------------------------------------------|
B-----------------------------------------------------|
G----------77-7--88-88-8-77-7-5-------------------7---|
D-77--7-88-77-7--88-88-8-77-7-5-X5 Y SE DESLISA A-7X5-|
A-77--7-88-55-5--66-66-6-55-5-3-------------------5---|
E-55--5-66--------------------------------------------|
si no te basta, kon mis amigos
la triple te vamos a dar

_______KORO________


e |--------------|
B |--------------|
G |-------7------|
D |--5----7-X5---|
A |--5X5--5------|
E |--3-----------|
Si tu kerí venir konmigo

e |--------------|
B |--------------|
G |-------5------|
D |--9----5-X5---|
A |--9X5--3------|
E |--7-----------|
te voy a dar un lión total
e |--------------|
B |--------------|
G |-------7------|
D |--5----7-X5---|
A |--5X5--5------|
E |--3-----------|
supongo ke tomai pastillas
e |--------------|
B |--------------|
G |-------5------|
D |--9----5-X10--|
A |--9X5--3------|
E |--7-----------|
o a la farmacia hay ke pasar

ESTO LO REPITE 4 VESE:
e |--------------|
B |--------------|
G |-------5------|
D |--9----5-X10--|
A |--9X5--3------|
E |--7-----------|
o a la farmacia hay ke pasar

HAY ESTA LA WEA SE LO DEDICO A LOS CAUROS DE EN MAL ESTADO
Y SALUDOS A LA PANXA PERO NO LE DEDICO ESTA CANCION PERO
LA KIERO CALETA......
Добавлено: 12.10.2013
Другие материалы по этой песне:
  • Аккорды и текст

Страница создана 12.10.2013
http://primanota.ru/tronic/mucho-humo-chords.htm
Привет, Гость.
Предлагаем пройти революционный курс по гитаре.
Подарок от PrimaNota.Ru, забирай!