PrimaNota.ru - самый крупный в мире бесплатный архив песенных текстов, аккордов, табулатур и нот


Tronic - Misis Guii - таба, видео

Регистрация Запомнить меня
Войти через:  Facebook Google Twitter Vk Yandex Mail.ru

Tronic - Misis Guii - таба, видео

Печатать
Просмотров: 74
mm hola que tal este  es uno de mis primeros tab de esta banda muy buena rola y saludos 
chik que amo ojala y la cheqs este tab ya sabs que todo lo que hago es por ti

Intro:
Cada dia no es igual siempre nos pasan cosas distintas estabamos comprando pan
y una señora guarda en su cartera
e---------|
B---------|
G---------|
D---------|2x
A-10-8-5-6|
E-8—-6-3-4|

Verso:
productos para el hogar,salsa de soya, pollo y 7 paltas nada de esto iba a pagar ella se 
veia decidida.
e---------|
B---------|
G---------|
D---------|2x(mm ritmo punk)
A-10-8-5-6|
E-8—-6-3-4|

Coro:
oiga misis guiñi porque roba usted le pregunte!! por su apariencia usted se ve de gran nivel
e---------------|
B---------------|
G-11------------|
D-x-------------|
A-9--8--10--6---|
E----6---8--4---|

Coro:
estoy asi hijo mio para engañar y asi poder robar mi jubilacion me paga 30mils
e---------------|
B---------------|
G---------------|
D---------------|
A-----8-10-5-3-8|
E-3h4-6-8—-3-1-6|


Verso:
Que loca la situación pobre señora Misis Guiñi no le queda otra opcion se disfraza como 
cuica
e---------|
B---------|
G---------|
D---------|2x(mm ritmo punk)
A-10-8-5-6|
E-8—-6-3-4|

al super le roba un monton y caja paga un kilo de harina esto de la jubilación hay que 
atención
e---------|
B---------|
G---------|
D---------|2x(mm importante va muteado esuchen hasta donde)
A-10-8-5-6|
E-8—-6-3-4|

Coro:
oiga misis guiñi porque roba usted le pregunte!! por su apariencia usted se ve de gran nivel
e---------------|
B---------------|
G-11------------|
D-x-------------|
A-9--8--10--6---|
E----6---8--4---|

Coro :
estoy asi hijo mio para engañar y asi poder robar mi jubilacion me paga 30mils
e---------------|
B---------------|
G---------------|
D---------------|
A-----8-10-5-3-8|
E-3h4-6-8—-3-1-6|

30mil al mes... 30mil al mes(30mil al mes) 30 mil
e--------|
B--------|
G--------|(nota: este es el pre-solo escuchen los tiempos)
D--------|
A-3-5-6-8|
E--------|

solo:
|------------------------------------------------------------------|
|------------------------------------------------------------------|
|------------------------------------------------------------------|
|10~--12-13------13-12------------10~-12--17(x8)-15(x8)-13(x8)-12~-|
|-----------10~--------10~--12-13----------------------------------|
|------------------------------------------------------------------|

Aquí va un intermedio que hace lo pueden meter en bajo y traka

Coro:
oiga misis guiñi porque roba usted le pregunte!! por su apariencia usted se ve de gran nivel
e---------------|
B---------------|
G-11------------|
D-x-------------|
A-9--8--10--6---|
E----6---8--4---|

Coro :
estoy asi hijo mio para engañar y asi poder robar mi jubilacion me paga 30mils
e---------------|
B---------------|
G---------------|
D---------------|
A-----8-10-5-3-8|
E-3h4-6-8—-3-1-6|

Y el final si quieren le meten el solo o le pre-solo
Добавлено: 18.09.2013
Другие материалы по этой песне:

Страница создана 18.09.2013
http://primanota.ru/tronic/misis-guii-chords.htm
Привет, Гость.
Предлагаем пройти революционный курс по гитаре.
Подарок от PrimaNota.Ru, забирай!