PrimaNota.ru - самый крупный в мире бесплатный архив песенных текстов, аккордов, табулатур и нот


Tronic - Mantarraya - бас-таба, видео

Регистрация Запомнить меня
Войти через:  Facebook Google Twitter Vk Yandex Mail.ru

Tronic - Mantarraya - бас-таба, видео

Печатать
Просмотров: 40
++++++++++++++++++++++
| Tronic- Mantarraya |
++++++++++++++++++++++


"Mejor mirar la raya que separa el sol del mar..."

Tuning: EADG


Intro
1.
G|-------------------------------------|
D|-------------------------------------|
A|----------------------------33335555-|
E|-66666666-66666666-66666666----------|

2.
G|-------------------------------------|
D|-------------------------------------|
A|-66666666-66666666-88888888-88888888-|
E|-------------------------------------|

Verse
"Mantarraya..."
3.
G|-------------------------------------|
D|-------------------------------------|
A|-------------------------------------|
E|-3~----------------11111111-11111111-|

"En el agua..."
4.
G|-------------------------------------|
D|--------------5555-------------------|
A|-66666666-8888-----55555555-55555555-|
E|-------------------------------------|

"Peligro hay..."
5.
G|------------------------------5-53---|
D|-55555555-55555555-33333333-33----5--|
A|-------------------------------------|
E|-------------------------------------|

"Y en la arena..."
6.
G|-------------------------------------|
D|------------8-8-88-------------------|
A|-66666666-66-------55555555-55555555-|
E|-------------------------------------|

Pre-Chorus
"El hombre imita..."
7.
G|---------------------------------|
D|----------3~---------------------|
A|-6~-6x-----------------------66x-|
E|-------------1x----33xx-33xx-----|

Chorus
"Nunca podr
Добавлено: 22.01.2014
Другие материалы по этой песне:
  • Аккорды и текст

Страница создана 22.01.2014
http://primanota.ru/tronic/mantarraya-chords.htm
Привет, Гость.
Предлагаем пройти революционный курс по гитаре.
Подарок от PrimaNota.Ru, забирай!