PrimaNota.ru - самый крупный в мире бесплатный архив песенных текстов, аккордов, табулатур и нот


Tronic - La Colina - таба, видео

Регистрация Запомнить меня
Войти через:  Facebook Google Twitter Vk Yandex Mail.ru

Tronic - La Colina - таба, видео

Печатать
Просмотров: 71
Intro
Debo esperar se que no es para siempre
e------------------------------------------|
B------------------------------------------|
G-12-12---12-12--12/----9--9---9---9-------|
D-10-10---10-10--10/----11-11--11--11--X2--|
A------------------------------------------|
E------------------------------------------|


la buena fruta ya vendra
e-----------------------------------------------|
B-----------------------------------------------|
G--9-9---9-9------12-12---12-12----9--9--9--9---|
D--7-7---7-7------10-10---10-10----11-11-11-11--|
A-----------------------------------------------|
E-----------------------------------------------|


e-------------------------------------------------|
B-------------------------------------------------|
G-7---6---5---2-------------- --------------------|
D-5---4---3---4-----------------------------------|
A-------------------------------------------------|
E-------------------------------------------------|


me encanta tocar gitarra cuando no hay gente

e------------------------------------------|
B------------------------------------------|
G-12-12---12-12--12/----9--9---9---9-------|
D-10-10---10-10--10/----11-11--11--11--X2--|
A------------------------------------------|
E------------------------------------------|


es un embrujo personal
e-----------------------------------------------|
B-----------------------------------------------|
G--9-9---9-9------12-12---12-12----9--9--9--9---|
D--7-7---7-7------10-10---10-10----11-11-11-11--|
A-----------------------------------------------|
E-----------------------------------------------|

e-------------------------------------------------|
B-------------------------------------------------|
G-7---6---5---2-------------- --------------------|
D-5---4---3---4-----------------------------------|
A-------------------------------------------------|
E-------------------------------------------------|


mucha gente piensa
que esta
bien cagarse al
que trabaja al lado


El coro va X2 se repite dos veces

no puedes vivir siempre mintiendo para despertar en la colina
       C                                A
e---------------------------------------------------------------------|
B---------------------------------------------------------------------|
G--555555555555555555-------------9999999999999999--------------------|
D--555555555555555555-------------9999999999999999--------------------|
A--333333333333333333-------------7777777777777777--------------------|
E---------------------------------------------------------------------|


  E  sabes cuanto caeras 900 veces   Bm
e--------------------------------------------|
B-2222222222222222222--44444444444444444444--|
G-2222222222222222222--44444444444444444444--|
D-0000000000000000000--22222222222222222222--|
A--------------------------------------------|
E--------------------------------------------|


se repite el Intro

Nadie vendra a cocinar mañana
por que las cuentas no pague
va mas de un mes que soy un
hijo de puta por que no hacepto tu querer
me da asco tu pensar no esta
bien cagarse al que trabaja al lado

Coro
   C
no puedes vivir siempre
  C               A
mintiendo para despertar en la colina
  E                Bm
sabes cuanto caeras 900 veces
   C
no puedes seguir siempre creyendo que    SE REPITE LOS MISMO DE ARRIBA
   C               A
la juventud es drogadicta
    E                     Bm
si borracho engendraste a tu gran familia
 C                                          A
no puedes seguir siempre mintiendo para despertar en la colina
E                      Bm
sabes cuanto caeras 900 veces

Solo

e--------------------------------------------|
B--------------------------------------------|
G--------------------------------------------|
D--/10-10---12---14--12---10---9-9---10------|x6
A--------------------------------------------|
E--------------------------------------------|  Fin


nose si esta bien XD
Добавлено: 10.07.2013
Другие материалы по этой песне:
  • Аккорды и текст

Страница создана 10.07.2013
http://primanota.ru/tronic/la-colina-chords.htm
Привет, Гость.
Предлагаем пройти революционный курс по гитаре.
Подарок от PrimaNota.Ru, забирай!