PrimaNota.ru - самый крупный в мире бесплатный архив песенных текстов, аккордов, табулатур и нот


Tronic - Fenix - таба, бас-таба, видео

Регистрация Запомнить меня
Войти через:  Facebook Google Twitter Vk Yandex Mail.ru

Tronic - Fenix - таба, бас-таба, видео

Печатать
Просмотров: 69
----------------------------------------------------------------------
			     cancion:fenix - banda:tronic
----------------------------------------------------------------------
Tabbed by:pecqos..
Email:pekoz_punk17@hotmail.com

        
intro..

e|-------------------------------------------------------------------------|
B|-------------------------------------------------------------------------|
G|-3------5------10-----8-------3------5------10------8----10-7------------|
D|-3------5------10-----8-X6----3------5------10------8-X6-10-7------------|
A|-1------3------8------6-------1------3------8-------6----8--5------------|
E|-------------------------------------------------------------------------|
   guitarra (1°)                           (2°) guitarra..
e|-----------------------------I-------------------------------------------|
B|-----------------------------I-------------------------------------------|
G|-8------7--------------------I----10--------------8----------------------|
D|-8-X12--7-X12---------X(2)---I----x--(0:06-0:16)--x-(0:17-0:19)----------|
A|-6------5--------------------I----8---------------6----------------------|
E|-----------------------------I-------------------------------------------|

e|----------------------------------------------|
B|----------------------------------------------|
G|-3------5------10------8----10-7--------------|
D|-3------5------10------8-X6-10-7--------------|
A|-1------3------8-------6----8--5--------------|
E|----------------------------------------------|
    guitarra (1°)                          (2°) guitarra 
e|----------------------------I--------------------------------------------|
B|----------------------------I--------------------------------------------|
G|-8------7-------------------I----10-----------------8--------------------|
D|-8-X12--7-X12-------X(2)----I----x--(o:24-0:33)-----x-(0:34-0:36)--------|
A|-6------5-------------------I----8------------------6--------------------|
E|----------------------------I--------------------------------------------|
       guitarra (1°)                   (2°) guitarra
e|---I-------------------------------I-------------------------------------|
B|---I-------------------------------I-------------------------------------|
G|-- I---------7-----5-----3X/-------I----10-----8-------------------------|
D|-3-I--5------7-X12-5-X12-3X/--X(2)-I----x--X12-x--X12----X(2)------------|
A|-3-I--5-X12--5-----3-----1X/-------I----8------6-------------------------|
E|-1-I--3----------------------------I-------------------------------------|

e|-------------------------------------------------------------------------|
B|-------------------------------------------------------------------------|
G|-3------5------10-----8-------3------5------10------8----10--------------|
D|-3------5------10-----8-X6----3------5------10------8-X6-10--------------|
A|-1------3------8------6-------1------3------8-------6----8---------------|
E|-------------------------------------------------------------------------|
    guitarra(1°)                            (2°) guitarra  (1:26)
e|-----------------------I-------------I-----------------------------------|
B|-----------------------I-------------I-----------------------------------|
G|-7/-5----8/-8----------I-7-----8-----I--10-----8-------------------------|
D|-7/-5----8/-8----X(2)--I-7-x12-8-x12-I-----X12-x--X12--------X(2)--------|
A|-5/-7----6/-6----------I-5-----6-----I--8------6-------------------------|
E|-----------------------I-------------I-----------------------------------|
      guitarra (1°)                                        (2°) guitarra
e|---I-------------------------------------------------I--------------------------|
B|---I-------------------------------------------------I--------------------------|
G|-- I---------7-----5-----3X/---------7-----5---------I----10-----8--------------|
D|-3-I--5------7-X12-5-X12-3X/--5------7-x12-5---8-----I----x--X12-x--X12----X(2)-|
A|-3-I--5-X12--5-----3-----1X/--5-x12--5-----3---8x12--I----8------6--------------|
E|-1-I--3-----------------------3----------------6-----I--------------------------|

     (solo).. guitarra (1°)
e|-------------------------------------------------------------------------|
B|-------------------------------------------------------------------------|
G|-8---7---10---8----7--------------5----7-----8-----10--------------------|
D|-8X2-7X2-10---8-X6-7-X6-----------5-X6-7-X6--8-X6--10-X8-----------------|
A|-6---5---8----6----5--------------3----5-----6-----8---------------------|
E|-------------------------------------------------------------------------|
      (solo).. (2°) guitarra
e|-------------------------------------------------------------------------|
B|-------------------------------------------------------------------------|
G|-12-10-14---8----7-----12-10-14---5----7/-----11-12--14------------------|
D|-x--x--x----x-X6-x-X6--x--x--x----5-X6-7/-X3--x--x---x-------------------|
A|-10-8--12---6----5-----10-8--12---3----5/-----9--10--12------------------|
E|-------------------------------------------------------------------------|
         guitarra (1°)                                     (2°) guitarra
e|---I---------------------------------------------------I-------------------------|
B|---I---------------------------------------------------I-------------------------|
G|-- I---------7-----5-----3X/---------7-----5-----------I--10-----8---------------|
D|-3-I--5------7-X12-5-X12-3X/--5------7-x12-5---8x/-----I--x--X12-x--X12----X(2)--|
A|-3-I--5-X12--5-----3-----1X/--5-x12--5-----3---8x/-x12-I--8------6---------------|
E|-1-I--3-----------------------3----------------6x/-----I-------------------------|

e|-------------------------------------------------------------------------|
B|-------------------------------------------------------------------------|
G|-3------5------10-----8-------3------5------10------8--------------------|
D|-3------5------10-----8-X6----3------5------10------8-X6-----------------|
A|-1------3------8------6-------1------3------8-------6--------------------|
E|-------------------------------------------------------------------------|

e|-------------------------------------------------------------------------|
B|-------------------------------------------------------------------------|
G|-3------5------10---------3----------------------------------------------|
D|-3------5------10---------3--(fin)---------------------------------------|
A|-1------3------8----------1----------------------------------------------|
E|-------------------------------------------------------------------------|



aike sakar kosas originales broh.. naada de kosas alo loko XD..haha.
weno espero iles guste esta tab..porkle es una delas kemas le dedike tyempo n.n
arre..

pecQos...


==============================================================================
Добавлено: 11.07.2013
Другие материалы по этой песне:
  • Аккорды и текст

Страница создана 11.07.2013
http://primanota.ru/tronic/fenix-chords.htm
Привет, Гость.
Предлагаем пройти революционный курс по гитаре.
Подарок от PrimaNota.Ru, забирай!