PrimaNota.ru - самый крупный в мире бесплатный архив песенных текстов, аккордов, табулатур и нот


Tronic - Brad Boys - таба, видео

Регистрация Запомнить меня
Войти через:  Facebook Google Twitter Vk Yandex Mail.ru

Tronic - Brad Boys - таба, видео

Печатать
Просмотров: 66
BRAD BOYS! por TRONIC
Tabs by NaNohoo Volaaas Dispersas			
la cuestion es punkrock asi k toca con velocidad xDD 		   

Desorden: Intro verso precoro coro postcoro verso2
coro El solo coro Intro (corta) 

INTRO
e-----------------------------------------------|
B-----------------------------------------------|
G-9-9-------------------------------------------|
D-9-9-9-7-9-9----------10-10--10-7-7------------|x2 la segunda ves sin las 
A-7-7-----9-9-9-9-9-10-10-10--10-5-5-7-5--------|   dos notas finales xD
E---------7-7----------8--8---8--5-5------------| alternars kn su ritmo 

verso 1

e-----------------------------------------------|
B-----------------------------------------------|
G--9-9-9-9-9-9-9--7-7-7-7-7-7-7-7---------------|x2
D--x-x-x-x-x-x-x--x-x-x-x-x-x-x-x---------------|
A--7-7-7-7-7-7-7--5-5-5-5-5-5-5-5---------------|
E-----------------------------------------------|

PRECORO

e----------------------------------------------------------|
B----------------------------------------------------------|
G-7-7-7-7-7-7--------------------------7-7-7-7-7-8-8-8-8---|
D------------7-7-7-7-7-------------------------------------|
A----------------------9-9-9-9-7-7-7-7---------------------|
E----------------------------------------------------------|

e----------------------------------------------------------------------|
B-10-10-10-8-7-7-7-7---------------------------------------------------|
G--------------------7-7-7-7-9-9-9-9-11-11-11-11--13(efecto cuatico xd)|
D----------------------------------------------------------------------|
A----------------------------------------------------------------------|
E----------------------------------------------------------------------|


CORO

e-----------------------------------------------|
B-----------------------------------------------|
G-9-9-9-----------------------------------------|x2
D-9-9-9-9-9-9--10-10-10--7-7-7-7----------------|
A-7-7-7-9-9-9--10-10-10--7-7-7-7----------------|
E-------7-7-7--8--8--8---5-5-5-5----------------|

PostCoro

e-----------------------------------------------|
B-----------------------------------------------|
G-9-9-------------------------------------------|
D-9-9-9-7-9-9----------10-10--10-7-7------------|x1  
A-7-7-----9-9-9-9-9-10-10-10--10-5-5------------|   
E---------7-7----------8--8---8--5-5------------|

Verso 2

e-----------------------------------------------|
B-----------------------------------------------|
G--9-9-9-9-9-9-9--7-7-7-7-7-7-7-7---------------|x2
D--x-x-x-x-x-x-x--x-x-x-x-x-x-x-x---------------|
A--7-7-7-7-7-7-7--5-5-5-5-5-5-5-5---------------|
E-----------------------------------------------|

El SoLohooo

e-----------------------------------------------|
B------------7-7-7-7-7-7-7-8-8-8-8-8-8-8-8------|
G-9-9-9-9-9-9-----------------------------------|
D-----------------------------------------------|
A-----------------------------------------------|
E-----------------------------------------------|

e------------------------------------------------------------------------|
B-------------7-7-7-7-7-8-8-8-8-10-10-10-10-8-8-8-8-12-12-12-12-10-10-10-|
G------------------------------------------------------------------------|
D-7/9-9-9-9-9------------------------------------------------------------|
A------------------------------------------------------------------------|
E------------------------------------------------------------------------|

e-----------------------------------------------------------------------------------------|
B-13-13-13-13--12-12-12-12-12--7-7-7-7-8-8-8-8-10-10-10-10-7-7-7-7-5-5-5-5-13-13-13-13----|
G-----------------------------------------------------------------------------------------|
D-----------------------------------------------------------------------------------------|
A-----------------------------------------------------------------------------------------|
E-----------------------------------------------------------------------------------------| 
FiN broos
trabajando en abracadabra xD

TRONIC lo mejor de Chile!!! y latinoamerica!
Добавлено: 20.10.2013
Другие материалы по этой песне:
  • Аккорды и текст

Страница создана 20.10.2013
http://primanota.ru/tronic/brad-boys-chords.htm
Привет, Гость.
Предлагаем пройти революционный курс по гитаре.
Подарок от PrimaNota.Ru, забирай!