PrimaNota.ru - самый крупный в мире бесплатный архив песенных текстов, аккордов, табулатур и нот


Trombone Shorty - Hurricane Season - таба, видео

Регистрация Запомнить меня
Войти через:  Facebook Google Twitter Vk Yandex Mail.ru

Trombone Shorty - Hurricane Season - таба, видео

Печатать
Просмотров: 170
-------------------------------------------------------------------------------
                             Hurricane Season - Trombone Shorty
-------------------------------------------------------------------------------
Tabbed by: berkekasif
E-mail: first tab, go easy on me! ;)

Tuning:Standart

Intro

e|---8----8----8----x-------------------------------------------------------------|
B|---8----8----8----x-------------------------------------------------------------|
G|---10---10---10---x-------------------------------------------------------------|  Listen for strumming
D|---10---10---10---x-----x8------------------------------------------------------|
A|---8----8----8----x-------------------------------------------------------------|
E|---x----x----x----x------------------------6---5---4------------------------------|

Verse 1

e|--------------------------------------------------x-------------------------|
B|--------------------------------------------------x-------------------------|
G|--------------------------------------------------x-------------------------|
D|--------------------------------8-----------------x-------------------------|
A|----10--8---10--8---10--8---8-------10--10--8-----x-------------------------|
E|--------------------------------------------------x-------------------------|

Verse 2

e|----------------|
B|----------------|
G|-----8-7--8-----|
D|----6-----------|
A|---6------------|
E|----------------|

Solo

You can do the same chord as intro, with a wah-wah.

Listen carefully to the song for timing :)
Добавлено: 24.07.2015
Другие материалы по этой песне:
  • Аккорды и текст

Страница создана 24.07.2015
http://primanota.ru/trombone-shorty/hurricane-season-chords.htm
Привет, Гость.
Предлагаем пройти революционный курс по гитаре.
Подарок от PrimaNota.Ru, забирай!