PrimaNota.ru - самый крупный в мире бесплатный архив песенных текстов, аккордов, табулатур и нот


Troggs - 66-5-4-3-2-1 - таба, видео

Регистрация Запомнить меня
Войти через:  Facebook Google Twitter Vk Yandex Mail.ru

Troggs - 66-5-4-3-2-1 - таба, видео

Печатать
Просмотров: 82
OK, simple, but quick tune.  Easy power chord changes.  Half step down if you didn't notice.
But I suspect if you transpose it, you'll get the E drone.  Either way, strum it like a slasher!

4 Bars of Drums

   Anacrusis   Phrase 1                                   Phrase 2
eb|----------|-------------------------------------------|-------------------------------------------|
Bb|----------|-------------------------------------------|-------------------------------------------|
Gb|----------|-10-12--13--12--10-8--10-10-10-10----------|-10-12--13--12--10-------------------------|
Db|-10-10-10-|-10-12--13--12--10-8--10-10-10-10-10-10-10-|-10-12--13--12--10-10-10-10-10-10-10-10-10-|
Ab|-10-10-10-|-8--10--11--10--8--6--8--8--8--8--10-10-10-|-8--10--11--10--8--10-10-10-10-10-10-10-10-|
Eb|-8--8--8--|----------------------------------8--8--8--|-------------------8--8--8--8--8--8--8--8--|
              Phrase 1                                    Phrase 3
eb|-PADDING--|-------------------------------------------|-------------------------------------------|
Bb|          |-------------------------------------------|-------------------------------------------|
Gb|          |-10-12--13--12--10-8--10-10-10-10----------|-10-12--13--12--10-------------------------|
Db|          |-10-12--13--12--10-8--10-10-10-10-10-10-10-|-10-12--13--12--10-10-10-10-10-13-10---10--|
Ab|          |-8--10--11--10--8--6--8--8--8--8--10-10-10-|-8--10--11--10--8--10-10-10-10-13-10---10--|
Eb|-PADDING--|----------------------------------8--8--8--|-------------------8--8--8--8--11-8----8---|
              Phrase 3 cont.                                    Note the slowed rhythm here ^ 
eb|-PADDING--|-------------------------------------------|-------------------------------------------|
Bb|          |-------------------------------------------|-------------------------------------------|
Gb|          |-------------------------------------------|-------------------------------------------|
Db|          |-10-10-10-13-10---10--10-10-10-11-10---10--|-10-10-10-13-10---10--10-10-10-10-10-10-10-|
Ab|          |-10-10-10-13-10---10--10-10-10-11-10---10--|-10-10-10-13-10---10--10-10-10-10-10-10-10-|
Eb|-PADDING--|-8--8--8--11-8----8---8--8--8--11-8----8---|-8--8--8--11-8----8---8--8--8--8--8--8--8--|
                      Here ^           and here ^             and here ^

Go back to Phrase 1 at the top and repeat.
Добавлено: 30.04.2015
Другие материалы по этой песне:
  • Аккорды и текст

Страница создана 30.04.2015
http://primanota.ru/troggs/66-5-4-3-2-1-chords.htm
Привет, Гость.
Предлагаем пройти революционный курс по гитаре.
Подарок от PrimaNota.Ru, забирай!