PrimaNota.ru - самый крупный в мире бесплатный архив песенных текстов, аккордов, табулатур и нот


Трофим - Я спросил у ясеня - аккорды и текст, видео

Регистрация Запомнить меня
Войти через:  Facebook Google Twitter Vk Yandex Mail.ru

Трофим - Я спросил у ясеня - аккорды и текст, видео

Печатать
Просмотров: 809
Я спросил у ясеня
Трофим
Табулатура на исполнение куплета. 
С припевом не сложно самим разобраться.


    Am
E||---------------------(0)---|---------------------||
B||-----------0----------1----|--------0------------||
G||--------2----------2-------|-----2-------2-------||
D||-----2----------2----------|--2-------------2----||
A||--0------------------------|---------------------||
E||---------------------------|---------------------||

    F#
E||---------------------(0)---|---------------------||
B||-----------0----------1----|--------0------------||
G||--------2----------2-------|-----2-------2-------||
D||-----2----------2----------|--2-------------2----||
A||---------------------------|---------------------||
E||--2------------------------|---------------------||

     F
E||----------------------(1)--|---------------------||
B||-----------0-----------1---|--------0------------||
G||--------2----------2-------|-----2-------2-------||
D||-----3----------3----------|--3-------------3----||
A||---------------------------|---------------------||
E||--1------------------------|---------------------||

    E
E||----------------------0----|---------------------||
B||-----------0-------0-------|--------0------------||
G||--------1-------1----------|-----1-------1-------||
D||-----2---------------------|--2-------------2----||
A||---------------------------|---------------------||
E||--0------------------------|---------------------||

    Am
E||---------------------(0)---|---------------------||
B||-----------0----------1----|--------0------------||
G||--------2----------2-------|-----2-------2-------||
D||-----2----------2----------|--2-------------2----||
A||--0------------------------|---------------------||
E||---------------------------|---------------------||

     Dm
E||-----------1----------0----|--------1------------||
B||--------3----------3-------|-----3-------3-------||
G||-----2----------2----------|--2-------------2----||
D||--0------------------------|---------------------||
A||---------------------------|---------------------||
E||---------------------------|---------------------||

     G
E||----------------------3----|---------------------||
B||-----------0-------0-------|--------3------------||
G||--------0-------0----------|-----0-------0-------||
D||-----0---------------------|--0-------------0----||
A||---------------------------|---------------------||
E||--3------------------------|---------------------||

     E
E||---------------------------|-----------0---------||
B||-----------1---------------|---------------------||
G||--------0------------------|--------1------------||
D||-----2---------------------|-----2---------------||
A||--3------------------------|---------------------||
E||---------------------------|--0------------------||



     A#
E||----------------------1----|--------0------------||
B||-----------3-------3-------|----------------3----||
G||--------3-------3----------|-----3-------3-------||
D||-----3---------------------|--3------------------||
A||--1------------------------|---------------------||
E||---------------------------|---------------------||

     A
E||---------------------------|------------------0--------(0)--||
B||-----------2---------------|--3--------(2)----2-----(2)-----||
G||--------2-------------(2)--|--2-----(2)-------2--(2)--------||
D||-----2-----------(2)-------|--2--(2)------------------------||
A||--0------------------------|--------------------------------||
E||---------------------------|--------------------------------||

     Dm
E||-----------1----------0----|--------1------------||
B||--------3----------3-------|-----3-------3-------||
G||-----2----------2----------|--2-------------2----||
D||--0------------------------|---------------------||
A||---------------------------|---------------------||
E||---------------------------|---------------------||

     E
E||-----------1---------------|-----------0---------------||
B||--------3-------3-----3----|--------0-------0-----0----||
G||-----2-------------2-------|-----1-------------1-------||
D||---------------------------|---------------------------||
A||--3------------------------|--2------------------------||
E||---------------------------|---------------------------||

    E
E||----------------------0----|---------------------||
B||-----------0-------0-------|--------0------------||
G||--------1-------1----------|-----1-------1-------||
D||-----2---------------------|--2-------------2----||
A||---------------------------|---------------------||
E||--0------------------------|---------------------||

     F
E||----------------------(1)--|---------------------||
B||-----------0-----------1---|--------0------------||
G||--------2----------2-------|-----2-------2-------||
D||-----3----------3----------|--3-------------3----||
A||--3------------------------|---------------------||
E||---------------------------|---------------------||

     F#sus4
E||---------------------------|---------------------------||
B||-----------3---------------|-----------2---------------||
G||--------4-------4-----4----|--------4-------4-----4----||
D||-----4-------------4-------|-----4-------------4-------||
A||--2------------------------|---------------------------||
E||---------------------------|--2------------------------||

    E
E||----------------------0----|---------------------||
B||-----------0-------0-------|--------0------------||
G||--------1-------1----------|-----1-------1-------||
D||-----2---------------------|--2-------------2----||
A||---------------------------|---------------------||
E||--0------------------------|---------------------||

    Am
Как больно, милая, как странно,
    F#
Сроднясь в земле, сплетясь ветвями,-
    F
Как больно, милая, как странно
    E
Раздваиваться под пилой.
    Am
Не зарастет на сердце рана,
Dm
Прольется чистыми слезами,
G
Не зарастет на сердце рана -
     E
Прольется пламенной смолой.

  A#
Пока жива, с тобой я буду -
  A
Душа и кровь нераздвоимы,-
  Dm
Пока жива, с тобой я буду -
  E
Любовь и смерть всегда вдвоем.
E
Ты понесешь с собой повсюду -
F
Ты понесешь с собой, любимый,-
F#sus4
Ты понесешь с собой повсюду
E
Родную землю, милый дом...

E7
Я спросил у ясеня
Dsus2
Где моя любимая
Am
Ясень не ответил мне
  E7
Качая головой
Dm
Я спросил у тополя
 C
Где моя любимая
C
Тополь забросал меня
 E7
Осеннею листвой
Я спросил у осени
Где моя любимая
Осень мне ответила
Проливным дождем
У дождя я спрашивал
Где моя любимая
Долго дождик слезы лил
За моим окном
Я спросил у месяца
Где моя любимая
Месяц скрылся в облаке
Не ответил мне
Я спросил у облака
Где моя любимая
Облако растаяло
В небесной синеве...

...Трясясь в прокуренном вагоне,
Он стал бездомным и смиренным,
Трясясь в прокуренном вагоне,
Он полуплакал, полуспал,
Когда состав на скользком склоне
Вдруг изогнулся страшным креном,
Когда состав на скользком склоне
От рельс колеса оторвал.

Нечеловеческая сила,
В одной давильне всех калеча,
Нечеловеческая сила
Земное сбросила с земли.
И никого не защитила
Вдали обещанная встреча,
И никого не защитила
Рука, зовущая вдали...

...Друг ты мой единственный
Где моя любимая
Ты скажи где скрылася
Знаешь где она
Друг ответил преданный
Друг ответил искренний
Была тебе любимая
Была тебе любимая
Была тебе любимая
А стала мне жена...

С любимыми не расставайтесь!
С любимыми не расставайтесь!
С любимыми не расставайтесь!
Всей кровью прорастайте в них,-
И каждый раз навек прощайтесь!
И каждый раз навек прощайтесь!
И каждый раз навек прощайтесь!
Когда уходите на миг!

...Я спросил у ясеня...


-----------------------------------
второй вариант припева

E7
Я спросил у ясеня
D
Где моя любимая
Am
Ясень не ответил мне
  E7
Качая головой
Dm
Я спросил у тополя
 C
Где моя любимая
C
Тополь забросал меня
 E7
Осеннею листвой


--------------------------------------
Примечание:

     G6     
  
E||-------|--------|-------||
B||--3----|--3-----|--3----||
G||--2----|--2-----|--0----||
D||--0----|--0-----|-------||
A||--2----|--0-----|--2----||
E||-------|--------|--3----||
Добавлено: 02.11.2013
Другие материалы по этой песне:
  • Аккорды и текст

Страница создана 02.11.2013
http://primanota.ru/trofim/ya-sprosil-u-yasenya-chords.htm
Привет, Гость.
Предлагаем пройти революционный курс по гитаре.
Подарок от PrimaNota.Ru, забирай!