PrimaNota.ru - самый крупный в мире бесплатный архив песенных текстов, аккордов, табулатур и нот


Trixter - Not Like All The Rest - таба, видео

Регистрация Запомнить меня
Войти через:  Facebook Google Twitter Vk Yandex Mail.ru

Trixter - Not Like All The Rest - таба, видео

Печатать
Просмотров: 126
Уроки эстрадного вокала в Санкт-Петербурге
Not Like All The Rest - Trixter
Tuning Standard
Tabbed By - Derek Schmidt

Check out my page - http://www.hammerheadrocks.com/#!dereks-page/c11nt


Intro Guitar 1
e------------------|    |------------------|    |--------------------|
B------------------|    |------------------|    |--------------------|
G--2-2-2-2-2-2-2-2-|    |------------------|    |--2-2-2-2-2-2-2-2-2-|
D--2-2-2-2-2-2-2-2-|    |--2-2-2-2-2-2-2-2-|    |--2-2-2-2-2-2-2-2-2-|
A--0-0-0-0-0-0-0-0-|    |--2-2-2-2-2-2-2-2-|    |--0-0-0-0-0-0-0-0-0-|
E------------------| X2 |--0-0-0-0-0-0-0-0-| X2 |--------------------| X2

Guitar 2
e-----------------------------| |--------------|
B-----------------------------| |--------------|
G-----------------------------| |-6--6--6/9\6--|
D----------6------------6-----| |-x--x--x/x\x--|
A--7--7--9---9--7--7--9---9-7-| |-4--4--4/6\4--|
E-----------------------------| |--------------| X2

e-----------------------------------|
B-----------------------------------|
G-----------------------------------|
D----------6------------6-----------|
A--7--7--9---9--7--7--9---9-7-7--7--|
E-----------------------------------|

Then Guitar 1 does this
e----------------------------------------|
B----------------------------------------|
G--9--9---9/10-10-10--10-10--10\9---9-9--|
D--x--x---x/x--x--x---x--x---x-\x---x-x--|
A--7--7---7/9--9--9---9--9---9-\7---7-7--|
E----------------------------------------|

Both Guitars
e------------|
B------------|
G--4--6/9\6--|
D--x--x/x\x--|
A--2--4/7\4--|
E------------|


Verse Guitar 1
e------------------|    |------------------|    |------------------|
B------------------|    |------------------|    |------------------|
G--2-2-2-2-2-2-2-2-|    |------------------|    |-2-2-2-2-2-2-2-2--|
D--2-2-2-2-2-2-2-2-|    |--2-2-2-2-2-2-2-2-|    |-2-2-2-2-2-2-2-2--|
A--0-0-0-0-0-0-0-0-|    |--2-2-2-2-2-2-2-2-|    |-0-0-0-0-0-0-0-0--|
E------------------| X2 |--0-0-0-0-0-0-0-0-| X2 |------------------| X2

e---------------------|    
B---------------------|    
G------------------6--|    
D--2-2-2-2-2-2-2-2-6--|   
A--2-2-2-2-2-2-2-2-4--|    
E--0-0-0-0-0-0-0-0----|


Chorus Guitar 1
e-----------------------------------------------|
B-----------------------------------------------|
G--------2--2--4--4--6--6--------2--2-----4--6--|
D--2--2--2--2--4--4--6--6--2--2--2--2-----4--6--|
A--2--2--0--0--2--2--4--4--2--2--0--0-----2--4--|
E--0--0--------------------0--0-----------------| X2

Guitar 2
e--0--0--0--0--0--0--0--0--0--0--0--0--0--0--------|
B--5--5--5--5--5--5--5--5--5--5--5--5--5--5--------|
G--------------------------------------------6PHv--|
D--------------------------------------------------|
A--------------------------------------------------|
E--------------------------------------------------| X2


Post Chorus
e-------------------------------------------------------------------|
B---------------------------------------------------5--5-5--5--5-5--|
G--2-2-2-2-2-2-2-2-4-4-4-4-4-4-4-4-4-4-4-4-4-4-4-4--4--4-4--4--4-4--|
D--2-2-2-2-2-2-2-2-4-4-4-4-4-4-4-4-4-4-4-4-4-4-4-4--2--2-2--2--2-2--|
A--0-0-0-0-0-0-0-0-2-2-2-2-2-2-2-2-2-2-2-2-2-2-2-2------------------|
E-------------------------------------------------------------------|
PM=================|==============================|
                  /            16 Notes            \

Verse



Pre Chorus



Chorus



Post Chorus
e-------------------------------------------------------|
B---------------------------------------------------5=--|
G--2-2-2-2-2-2-2-2-4-4-4-4-4-4-4-4-4-4-4-4-4-4-4-4--4=--|
D--2-2-2-2-2-2-2-2-4-4-4-4-4-4-4-4-4-4-4-4-4-4-4-4--2=--|
A--0-0-0-0-0-0-0-0-2-2-2-2-2-2-2-2-2-2-2-2-2-2-2-2------|
E-------------------------------------------------------|
PM=================|==============================|
                  /            16 Notes            \

Bridge
e--------------| |----------|
B--------------| |-5--5-5---|
G--9-8-7-6-5-4-| |-4--4-4---|
D--9-8-7-6-5-4-| |-2--2-2---|
A--7-6-5-4-3-2-| |----------|
E--------------| |----------| X5


Lick during bridge Guitar 2
e--12p9\7-9---9p7--9p7------|
B----------------------9-9--|
G---------------------------|
D---------------------------|
A---------------------------|
E---------------------------|


End Of Bridge
Guitar 1
e-----------------|
B-----------------|
G--6--------2--4--|
D--6--2--4--2--4--|
A--4--2--4--0--2--|
E-----0--2--------|

Guitar 2
e----------------------------------|
B----------------------------------|
G-------9v---11b12--11b13--11b13v--|
D--11v-----------------------------|
A----------------------------------|
E----------------------------------|



Break Down

Guitar 1
e----------------------------|
B----------------------------|
G----------------------4--6--|
D--2=------------------4--6--|
A--2=------------------2--4--|
E--0=------------------------|

Guitar 2
e--0--0--0--0--0--0--|
B--5--5--5--5--5--5--|
G--------------------|
D--------------------|
A--------------------|
E--------------------|


Chorus


Post Chorus
e-------------------------------------------------------|
B---------------------------------------------------5=--|
G--2-2-2-2-2-2-2-2-4-4-4-4-4-4-4-4-4-4-4-4-4-4-4-4--4=--|
D--2-2-2-2-2-2-2-2-4-4-4-4-4-4-4-4-4-4-4-4-4-4-4-4--2=--|
A--0-0-0-0-0-0-0-0-2-2-2-2-2-2-2-2-2-2-2-2-2-2-2-2------|
E-------------------------------------------------------|
PM=================|==============================|
                  /            16 Notes            \
            you will do the B5 twice as many times as normal

Bridge again

End on
e------------------|
B--5--5------------|
G--4--4--4--6/9\6--|
D--2--2--x--x/x\x--|
A--------2--4/7\4--|
E------------------|

Добавлено: 23.11.2015
Другие материалы по этой песне:
  • Аккорды и текст

Страница создана 23.11.2015
http://primanota.ru/trixter/not-like-all-rest-chords.htm
Привет, Гость.
Предлагаем пройти революционный курс по гитаре.
Подарок от PrimaNota.Ru, забирай!