PrimaNota.ru - самый крупный в мире бесплатный архив песенных текстов, аккордов, табулатур и нот


Trivium - To Burn The Eye - текст песни, таба, видео

Регистрация Запомнить меня
Войти через:  Facebook Google Twitter Vk Yandex Mail.ru

Trivium - To Burn The Eye - текст песни, таба, видео

Печатать
Просмотров: 168
this is the solo with backing for "to burn the eye" by trivium of 2003's 'ember to inferno'

KEY
tr = tremolo pick
/ \ = slides
t = right hand/ two hand tapping
h = hammer on
p = pull off
fb = full bend

|-/16-13-12-13-12-13-16-13-12-13-|----------------------------------------|
|--------------------------------|-15-13-12-13-12-10-9-10-12-10-9-10-10fb-|
|--------------------------------|----------------------------------------|
|--------------------------------|----------------------------------------|
|--------------------------------|----------------------------------------|
|--------------------------------|----------------------------------------|
|
|
|--------------------------------|----------------------------------------|
|--------------------------------|----------------------------------------|
|--------------------------------|----------------------------------------|
|--------------------------------|----------------------------------------|
|--------------------------------|----------------------------------------|
|-3-3-3-3-3-3-3-3-3-3-3-3-3-3-3--|-4-4-4-4-4-4-4-4-4-4-4-4-4-4-4-4-4-4-4--|

|-----------------------------------|-------------------------------------|
|-10-9-10-12-12-10-9-10-9-----------|-------------------------------------|
|------------------------10-9--10---|-------------------------------------|
|----------------------------12--12-|-10-9-7-6----------------------------|
|-----------------------------------|-------------------------------------|
|-----------------------------------|-------------------------------------|
|
|
|-----------------------------------|-------------------------------------|
|-----------------------------------|-------------------------------------|
|-----------------------------------|-------------------------------------|
|-----------------------------------|-------------------------------------|
|-----------------------------------|-------------------------------------|
|-1-1-1-1-1-1-1-1-1-1-1-1-1-1-1-1-1-|-0-0-0-0-0-0-0-0-0-0-0-0-0-0-0-0-0-0-|

|----------------------|-------------------------|------------------------|
|-9-10-9-10-13-12-10---|-13-12-10---12-10---10---|-10tr--9tr--12tr--10tr--|
|----------------------|----------13-----13------|------------------------|
|----------------------|-------------------------|------------------------|
|----------------------|-------------------------|------------------------|
|----------------------|-------------------------|------------------------|
|
|
|----------------------|-------------------------|------------------------|
|----------------------|-------------------------|------------------------|
|----------------------|-------------------------|------------------------|
|----------------------|-------------------------|------------------------|
|----------------------|-------------------------|------------------------|
|-3-3-3-3-3-3-3-3-3-3--|-4-4-4-4-4-4-4-4-4-4-4-4-|-1-1-1-1-1-1-1-1-1-1-1--|

|-----12---------------|---12-16-12--12t19p16p12-(x5)-----|
|---12--15fb-----------|-15--------15---------------------|
|-13-------------------|----------------------------------|
|----------------------|----------------------------------|
|----------------------|----------------------------------|
|----------------------|----------------------------------|
|
|
|----------------------|----------------------------------|
|----------------------|----------------------------------|
|----------------------|----------------------------------|
|----------------------|----------------------------------|
|----------------------|----------------------------------|
|-0-0-0-0-0-0-0-0-0-0--|-3-3-3-3-3-3-3-3-3-3-3-3-3-3-3-3--|

|-t20p16p12-t20p16p12-t19p16p12-t19p16p12-t18p16p12-t18p16p12-16\\-|
|------------------------------------------------------------------|
|------------------------------------------------------------------|
|------------------------------------------------------------------|
|------------------------------------------------------------------|
|------------------------------------------------------------------|
|
|
|------------------------------------------------------------------|
|------------------------------------------------------------------|
|------------------------------------------------------------------|
|------------------------------------------------------------------|
|------------------------------------------------------------------|
|-4-4-4-4-4-4-4-4-4-4-4-4-4-4-4-4-4-4-4-4-4-4-4-4-4-4-4-4-4-4-4-4--|

|-20tr---19tr---17tr---16tr---|-17--20--24--17----17--20--24--17-----|
|-----------------------------|--------------------------------------|
|-----------------------------|--------------------------------------|
|-----------------------------|--------------------------------------|
|-----------------------------|--------------------------------------|
|-----------------------------|--------------------------------------|
|
|
|-----------------------------|--------------------------------------|
|-----------------------------|--------------------------------------|
|-----------------------------|--------------------------------------|
|-----------------------------|--------------------------------------|
|-----------------------------|--------------------------------------|
|-1-1-1-1-1-1-1-1-1-1-1-1-1-1-|-0-0-0-0-0-0-0-0-0-0-0-0-0-0-0-0-0-0--|

|--------16-----16------------16-19-|-19-17-16-----------16191917161416-|
|---17-18--18-17--18-17-----17------|-----------------------------------|
|-16----------------------16--------|---------19-19-17-16---------------|
|-----------------------14----------|-----------------------------------|
|-----------------------------------|-----------------------------------|
|-----------------------------------|-----------------------------------|
|
|
|-----------------------------------|-----------------------------------|
|-----------------------------------|-----------------------------------|
|-----------------------------------|-----------------------------------|
|-----------------------------------|-----------------------------------|
|-----------------------------------|-----------------------------------|
|-3-3-3-3-3-3-3-3-3-3-3-3-3-3-3-3-3-|-4-4-4-4-4-4-4-4-4-4-4-4-4-4-4-4-4-|

|-19---19-20-19-20---|-22fb~~~~~~~~~~~~--|
|----22--------------|-------------------|
|--------------------|-------------------|
|--------------------|-------------------|
|--------------------|-------------------|
|--------------------|-------------------|
|
|
|--------------------|-------------------|
|--------------------|-------------------|
|--------------------|-------------------|
|--------------------|-------------------|
|--------------------|-------------------|
|-1-1-1-1-1-1-1-1-1--|-0-0-0-0-0-0-0-0-0-|


little bit after solo
|-------------------------|-----------------------------------------|
|-------------------------|-----------------------------------------|
|-------------------------|-----------------------------------------|
|-------------------------|-----------------------------------------|
|-1--1--1--1--1--1--1--1--|-6tr--7tr-------6tr----------------------|
|-0--0--0--0--0--0--0--0--|-----------9tr-------7tr--9tr--6tr--7tr--|
Добавлено: 10.03.2012
Другие материалы по этой песне:

Страница создана 10.03.2012
http://primanota.ru/trivium/to-burn-the-eye-chords.htm
Привет, Гость.
Предлагаем пройти революционный курс по гитаре.
Подарок от PrimaNota.Ru, забирай!