PrimaNota.ru - самый крупный в мире бесплатный архив песенных текстов, аккордов, табулатур и нот


Trivium - Throes Of Perdition - текст песни, таба, бас-таба, видео

Регистрация Запомнить меня
Войти через:  Facebook Google Twitter Vk Yandex Mail.ru

Trivium - Throes Of Perdition - текст песни, таба, бас-таба, видео

Печатать
Просмотров: 419
Авторы: Trivium

This song is played on a seven string
Tuning is B-E-A-D-G-B-E
BPM 126 
4/4  
Guitars: Guitar 1: CKB 
         Guitar 2: MKH 
         Guitar 3: Harmony
         
Legend: |h   Hammer on
        |p   Pull off
        |~~  Vibrato
        |.   Palm mute
        |\   Slide down
        |/   Slide up
        |b   Bend
        |==  Hold note
        |r   Release
        |*3* Triplets
        |x   Muted note 

Updates: 1/18/10
         8/19/10


CKB Solo
|------------------------------|----------------------------|
|------------------------------|----------------------------|
|19\---------------------------|7~~7-9-11-------------------|
|------------------------------|----------------------------|
|------------------------------|----------------------------|
|------------------------------|----------------------------|
|------------------------------|----------------------------|


|------------------------------|----------------------------|
|------------------------------|----------------------------|
|------------------------------|----------------------------|
|21\---------------------------|9~~9-11-12------------------|
|------------------------------|----------------------------|
|------------------------------|----------------------------|
|------------------------------|----------------------------|


|------------------------------|----------------------------|
|------------------------------|----------------------------|
|------------------------------|----------------------------|
|------------------------------|----------------------------|
|------------------------------|----------------------------|
|--------------2-2-2-2-2-2-2---|--------7---------7-----7---|
|0-0-0-0-0-0-0-3-3-3-3-3-3-3---|8-8-8-8-8-8-8-8-8-8-8-8-8---|
   . . . . . .   . . . . . .    . . . .   . . . .   . .    

|/14~~14h15p12----------------|----------------------------|
|--------------15-14----------|14-15p14-12-----------------|
|-----------------------------|-----------14~~-------------|
|-----------------------------|----------------------------|
|-----------------------------|----------------------------|
|-----------------------------|----------------------------|
|-----------------------------|----------------------------|

|-----------------------------|----------------------------|
|-----------------------------|----------------------------|
|/14~~14h16p12----------------|9--11p9---------------------|
|--------------16-14----------|--------12-11~~-------------|
|-----------------------------|----------------------------|
|-----------------------------|----------------------------|
|-----------------------------|----------------------------|

|-----------------------------|----------------------------|
|-----------------------------|----------------------------|
|-----------------------------|----------------------------|
|-----------------------------|----------------------------|
|-----------------------------|----------------------------|
|--------3---------3-----3----|--------2---------2-----2---|
|5-5-5-5-5-5-5-5-5-5-5-5-5----|0-0-0-0-0-0-0-0-0-0-0-0-0---|
 . . . .   . . . .   . .       . . . .   . . . .   . .

|------------12b13r~~---------|
|14-15-14---------------------|
|--------14-------------------|
|-----------------------------|
|-----------------------------|
|-----------------------------|
|-----------------------------|

|-----------------------------|
|------------14b15r~~---------|
|9--11-9----------------------|
|--------11-------------------|
|-----------------------------|
|-----------------------------|
|-----------------------------|

|-----------------------------|
|-----------------------------|
|-----------------------------|
|-----------------------------|
|-----------------------------|
|--------2---------2-----2----|
|3-3-3-3-3-3-3-3-3-3-3-3-3----|
 . . . .   . . . .   . .

|7------10---9---7------10---9-----|10------14--12--10------14--12----|
|--8---8---8---8---8---8---8---8---|--12--12--12--12--12--12--12------|
|----7---------------7-------------|----11--------------11------------|
|----------------------------------|----------------------------------|
|----------------------------------|----------------------------------|
|----------------------------------|----------------------------------|
|----------------------------------|----------------------------------|

|----------------------------------|----------------------------------|
|----------------------------------|----------------------------------|
|----------------------------------|----------------------------------|
|----------------------------------|----------------------------------|
|----------------------------------|----------------------------------|
|--------7---------7-----7---------|--------3---------3-----3---------|
|8-8-8-8-8-8-8-8-8-8-8-8-8---------|5-5-5-5-5-5-5-5-5-5-5-5-5---------|
 . . . .   . . . .   . .            . . . .   . . . .   . .

|14----------17----15----14----------17----15------|
|---15----------15----15----15----------15----15---|
|------14-14-------------------14-14---------------|                 
|--------------------------------------------------|
|--------------------------------------------------|
|--------------------------------------------------|
|--------------------------------------------------|

|--------------------------------------------------|
|--------------------------------------------------|
|--------------------------------------------------|
|--------------------------------------------------|
|--------------------------------------------------|
|------------2--------------2--------2-------------|
|0--0--0--0--0--0--0--0--0--0--0--0--0-------------|
 .  .  .  .     .  .  .  .     .  .

************************* 3 *************************
|17-15-14--------19-17-15--------19-17-19-21-19-21---|21b22~~---|
|--------17-15-14--------19-17-15--------------------|----------|
|----------------------------------------------------|----------|
|----------------------------------------------------|----------|
|----------------------------------------------------|----------|
|----------------------------------------------------|----------|
|----------------------------------------------------|----------|

|----------------------------------------------------|
|----------------------------------------------------|
|----------------------------------------------------|
|----------------------------------------------------|
|----------------------------------------------------|
|--------2---------2-----2---------------------------|
|3-3-3-3-3-3-3-3-3-3-3-3-3---------------------------|
 . . . .   . . . .   . . 

MKH Solo
**************** 3 **************** 
|----------------------------------------------------|
|20-19-17--------------------------------------------|
|--------19-18-16------------------------------------|
|--------------- 19-17-16----------------------------|
|------------------------19-17-16--------------------|
|----------------------------------------------------|
|----------------------------------------------------|


|----------------------------------------------------|
|----------------------------------------------------|
|----------------------------------------------------|
|----------------------------------------------------|
|----------------------------------------------------|
|------------7--------------7--------7---------------|
|8--8--8--8--8--8--8--8--8--8--8--8--8---------------|
 .  .  .  .     .  .  .  .     .  .

******* 3 *******
|--------------------------------|
|--------------------------------|
|--------------------------------|
|--------------------------------|
|--------------------------------|
|19-17-15-----------------17~~---|
|--------19-17-15-14~~15~~-------|

|--------------------------------|
|--------------------------------|
|--------------------------------|
|--------------------------------|
|--------------------------------|
|--------3---------3-----3-------|
|5-5-5-5-5-5-5-5-5-5-5-5-5-------|
 . . . .   . . . .   . . 

|----------------------------|----------------------------|
|----------------------------|----------------------------|
|----------------------------|----------------------------|
|-----------------------14b16|==r-12-14-16----------------|
|----------------------------|----------------------------|
|----------------------------|----------------------------|
|14--------15----------------|----------------------------|

|----------------------------|----------------------------|
|----------------------------|----------------------------|
|----------------------------|----------------------------|
|----------------------------|----------------------------|
|-----------------------16b17|==r-14-16-17----------------|
|12--------14----------------|----------------------------|
|----------------------------|----------------------------|

|----------------------------|----------------------------|
|----------------------------|----------------------------|
|----------------------------|----------------------------|
|----------------------------|----------------------------|
|----------------------------|----------------------------|
|--------2---------2-----2---|--------2---------2-----2---|
|0-0-0-0-0-0-0-0-0-0-0-0-0---|3-3-3-3-3-3-3-3-3-3-3-3-3---|
 . . . .   . . . .   . .      . . . .   . . . .   . .

|14-10------------------------------------|----------------------------|
|-----10-12-10--10------------------------|----------------------------|
|-------------12--12--11------------------|----------------------------|
|-----------------------------------------|----------------11-12~~-----|
|-------------------12--12-10-12-10--10---|--------10-12-14------------|
|----------------------------------14-----|10-12-14--------------------|
| ----------------------------------------|----------------------------|

|10--7------------------------------------|----------------------------|
|------7--8-7---7-------------------------|----------------------------|
|-------------9---9---7-------------------|----------------------------|
|-----------------------------------------|----------------7--9~~------|
|-------------------9---9--7--9--7---7----|--------7--9-10-------------|
|----------------------------------10-----|7--9--10--------------------|
|-----------------------------------------|----------------------------|

|-----------------------------------------|----------------------------|
|-----------------------------------------|----------------------------|
|-----------------------------------------|----------------------------|
|-----------------------------------------|----------------------------|
|-----------------------------------------|----------------------------|
|--------7---------7-----7----------------|--------3---------3-----3---|
|8-8-8-8-8-8-8-8-8-8-8-8-8----------------|5-5-5-5-5-5-5-5-5-5-5-5-5---|
 . . . .   . . . .   . .                   . . . .   . . . .   . . 

 ******************************* 3 ********************************
|--------10--------------10-12-13--------10--------------10-12-13-----|
|10-11-12--12-11-10-11-12--------10-11-12--12-11-10-11-12-------------|
|---------------------------------------------------------------------|
|---------------------------------------------------------------------|
|---------------------------------------------------------------------|
|---------------------------------------------------------------------|
|---------------------------------------------------------------------|

********************************* 3 **********************************
|---------------------------------------------------------------------|
|---------------------------------------------------------------------|
|---------7---------------7--9--10---------7---------------7--9--10---|
|7--8--9----9--8--7--8--9----------7--8--9---9--8--7--8--9------------|
|---------------------------------------------------------------------|
|---------------------------------------------------------------------|
|---------------------------------------------------------------------|

|---------------------------------------------------------------------|
|---------------------------------------------------------------------|
|---------------------------------------------------------------------|
|---------------------------------------------------------------------|
|---------------------------------------------------------------------|
|--------------------2------------------------2-------------2---------|
|0----0----0----0----0----0----0----0----0----0---0----0----0---------|
 .    .    .    .         .    .    .    .        .    .

 ************************** 3 ****************************
|--------------------------19--------------------------------19-17---|
|15-17-18-19-18-17-15-17-18--18-17-15-17-18-19-18-17-15-17-18--------|
|--------------------------------------------------------------------|
|--------------------------------------------------------------------|
|--------------------------------------------------------------------|
|--------------------------------------------------------------------|
|--------------------------------------------------------------------|

 ************************** 3 ****************************
|--------------------------------------------------------------------|
|--------------------------------------------------------------------|
|--------------------------16--------------------------------16-14---|
|12-14-15-16-15-14-12-14-15--15-14-12-14-15-16-15-14-12-14-15--------|
|--------------------------------------------------------------------|
|--------------------------------------------------------------------|
|--------------------------------------------------------------------| 

|----------------------------------------------------------------|
|----------------------------------------------------------------|
|----------------------------------------------------------------|
|----------------------------------------------------------------|
|----------------------------------------------------------------|
|----------------2-------------------2-----------2---------------|
|3---3---3---3---3---3---3---3---3---3---3---3---3---------------|
 .   .   .   .       .   .   .   .       .   .

|17b19==|======|====~~|
|-------|------|------|
|-------|------|------|
|-------|------|------|
|-------|------|------|
|-------|------|------|
|-------|------|------|

|-------|------|------|
|-------|------|------|
|14b16==|======|====~~|
|-------|------|------|
|-------|------|------|
|-------|------|------|
|-------|------|------|


END
Добавлено: 10.06.2012
Другие материалы по этой песне:

Страница создана 17.03.2012
http://primanota.ru/trivium/throes-of-perdition-chords.htm
Привет, Гость.
Предлагаем пройти революционный курс по гитаре.
Подарок от PrimaNota.Ru, забирай!