PrimaNota.ru - самый крупный в мире бесплатный архив песенных текстов, аккордов, табулатур и нот


Trivium - Leaving This World Behind - таба, видео

Регистрация Запомнить меня
Войти через:  Facebook Google Twitter Vk Yandex Mail.ru

Trivium - Leaving This World Behind - таба, видео

Печатать
Просмотров: 98
Band:  Trivium
Song:  Leaving This World Behind
Album: In Waves(2011)

Tuning: Drop C# (C#, G#, C#, F#, A#, D#)
(Tune all strings down ½ a step and then drop tune)

Guitar 1 (Distorted Electric)
|---------------------------------|---------------------------------|
|---------------------------------|---------------------------------|
|---------------------------------|---------------------------------|
|-8-8-8-8-8-8-8-8-8-8-8-8-8-8-8-8-|-7-7-7-7-7-7-7-7-5-5-5-5-5-5-5-5-|
|-7-7-7-7-7-7-7-7-7-7-7-7-7-7-7-7-|-7-7-7-7-7-7-7-7-7-7-7-7-7-7-7-7-|
|-5-5-5-5-5-5-5-5-5-5-5-5-5-5-5-5-|-5-5-5-5-5-5-5-5-5-5-5-5-5-5-5-5-|

Guitar 2 (Acoustic)
|---------------------------------|---------------------------------|
|---------------------------------|-------------------------5-------|
|---------0---------------0-------|---------6-----------------------|
|-----8-------8-------8-------8---|-----7-------7-------5-------5---|
|-7---------------7---------------|-7---------------7---------------|
|---------------------------------|---------------------------------|

Guitar 1
|-----------------------------------------|-------------------------------------------------|
|-----------------------------------------|-------------------------------------------------|
|-----------------------------------------|-------------------------------------------------|
|-7-7-7-7-7-7-7-7-11-11-11-11-11-11-11-11-|-12-12-12-12-12-12-12-12-14-14-14-14-14-14-14-14-|
|-5-5-5-5-5-5-5-5-10-10-10-10-10-10-10-10-|-10-10-10-10-10-10-10-10-12-12-12-12-12-12-12-12-|
|-3-3-3-3-3-3-3-3--7--7--7--7--7--7--7--7-|--8--8--8--8--8--8--8--8-11-11-11-11-11-11-11-11-|

Guitar 2
|-----------------------------------|---------------------------------|
|-----------------------------------|---------------------------------|
|---------7----------------12-------|-----7-------7---6---------------|
|-----3-------3--------8--------8---|-7-------7-----------7-------7---|
|-5---------------10----------------|-------------------------7-------|
|-----------------------------------|---------------------------------|

Guitar 1
|---------------------------------|---------------------------------|
|---------------------------------|---------------------------------|
|---------------------------------|---------------------------------|
|-7-7-7-7-7-7-7-7-7-7-7-7-7-7-7-7-|-5-5-5-5-5-5-5-5-3-3-3-3-3-3-3-3-|
|-5-5-5-5-5-5-5-5-5-5-5-5-5-5-5-5-|-5-5-5-5-5-5-5-5-5-5-5-5-5-5-5-5-|
|-3-3-3-3-3-3-3-3-3-3-3-3-3-3-3-3-|-3-3-3-3-3-3-3-3-3-3-3-3-3-3-3-3-|

Guitar 2
|---------------------------------|---------------------------------|
|---------------------------------|---------------------------------|
|---------3---------------3-------|---------3---------------2-------|
|-----7-------7-------7-------7---|-----5-------5-------3-------3---|
|-5---------------5---------------|-5---------------5---------------|
|---------------------------------|---------------------------------|

Guitar 1
|---------------------------------|---------------------------------|
|---------------------------------|---------------------------------|
|---------------------------------|---------------------------------|
|-5-5-5-5-5-5-5-5-5-5-5-5-5-5-5-5-|-3-3-3-3-3-3-3-3-2-2-2-2-2-2-2-2-|
|-4-4-4-4-4-4-4-4-4-4-4-4-4-4-4-4-|-4-4-4-4-4-4-4-4-4-4-4-4-4-4-4-4-|
|-2-2-2-2-2-2-2-2-2-2-2-2-2-2-2-2-|-2-2-2-2-2-2-2-2-2-2-2-2-2-2-2-2-|

Guitar 2
|---------------------------------|---------------------------------|
|---------------------------------|---------------------------------|
|---------3---------------3-------|---------2---------------0-------|
|-----5-------5-------5-------5---|-----3-------3-------2-------2---|
|-4---------------4---------------|-4---------------4---------------|
|---------------------------------|---------------------------------|

That's all guys, please rate :)
Добавлено: 16.07.2013
Другие материалы по этой песне:

Страница создана 18.04.2012
http://primanota.ru/trivium/leaving-this-world-behind-chords.htm
Привет, Гость.
Предлагаем пройти революционный курс по гитаре.
Подарок от PrimaNota.Ru, забирай!