PrimaNota.ru - самый крупный в мире бесплатный архив песенных текстов, аккордов, табулатур и нот


Trivium - Kirisute Gomen - текст песни, таба, бас-таба, видео

Регистрация Запомнить меня
Войти через:  Facebook Google Twitter Vk Yandex Mail.ru

Trivium - Kirisute Gomen - текст песни, таба, бас-таба, видео

Печатать
Просмотров: 459
Авторы: Trivium

-------------------------------------------------------------------------------
                             Kirisute Gomen - Trivium
-------------------------------------------------------------------------------
Tabbed by: 11 A7X 11
I'm pretty sure this is done with a 7-string guitar, but seeing as I don't have access 
one , I can only do 6 string.
This is my very first tab, so expect some mistakes.
Tuning:EADGBE

Acoustic intro

e|--------------------------------------------------------------------------|
B|--8---7---5----------12--10--8---5---4-----8---7---5---13-----13---12--13-|
G|--x---x---x---5------x---x---x---x---x-----x---x---x---x------x----x---x--|
D|--5---4---2---x------9---7---5---2---1-----5---4---2---10-----10---9---10-|
A|--------------3-----------------------------------------------------------|
E|--------------------------------------------------------------------------|


e|-------------------------------------------------------------------|
B|--12--12--10-------------------------------------------------------|
G|--x---x---x--------------------------------------------------------|
D|--9---9---7--------------------------------------------------------|
A|-------------------------------------------------------------------|
E|-------------------------------------------------------------------|


Guitar 1 Intro                                                           X4
e|------------------------------------------------------------------------|
B|-----------------------4-4-4-4h5p4-----4---5---8---5---7---10--12-------|
G|-----4-4-4-4h5p4------------------5-4--x---x---x---x---x---x---x--------|
D|--2--------------7-5-4-----------------1---2---5---2---4---7---9--------|
A|--2---------------------------------------------------------------------|
E|--0---------------------------------------------------------------------|

   PM.   PM.
e|---------------------------------------------------------------|
B|---------------------------------------------------------------|
G|---------------------------------------------------------------|
D|-----7-7---6-6-------------------------------------------------|
A|-----5-5---4-4-------------------------------------------------|
E|---0-----0------0-00-00-000-000-000----------------------------|



| /  slide up
| \  slide down
| h  hammer-on
| p  pull-off
| ~  vibrato
| +  harmonic
| x  Mute note
===============================================================================
Добавлено: 30.05.2012
Другие материалы по этой песне:

Страница создана 29.02.2012
http://primanota.ru/trivium/kirisute-gomen-chords.htm
Привет, Гость.
Предлагаем пройти революционный курс по гитаре.
Подарок от PrimaNota.Ru, забирай!