PrimaNota.ru - самый крупный в мире бесплатный архив песенных текстов, аккордов, табулатур и нот


Trivium - Fugue - текст песни, таба, видео

Регистрация Запомнить меня
Войти через:  Facebook Google Twitter Vk Yandex Mail.ru

Trivium - Fugue - текст песни, таба, видео

Печатать
Просмотров: 285
Band- Trivium
Song- Fugue

-----------------------------------------------------------|
-----------------------------------------------------------|
-----------------------------------------------------------|
--5---5----4---5--------------5--5----4---5----------------|
--7---7----5---7--------------7--7----5---7----------------|
----0---00---0---000-000-000---0---00---0----0-3-7/8-5-7-3-|

----------------------------------------|
----------------------------------------|
----------------------------------------|
--5---5----4--5--------------5-----9--9-|
--7---7----5--7--------------7----10--9-|
----0---00---0--000-000-000--8----10-10-|


----------------------------------------------------------|
----------------------------------------------------------|
----------------------------------------------------------|
---------------------------------------------------9-7----|
----7---9----7---9--10-9-7------9---10-----9--10-------10-|
-00---0---000--0--0---------8-8---8----888---8---8--------|


---------------------------------------------------------|
---------------------------------------------------------|
---------------------------------------------------------|
--------------------7-5-4-------------------------10-9-7-|
----5---7----5---7-----------9---10---9---10---9---------|
-33---3---333--3--3-------77---7----7---7----7---7-------|


---------------------------|
---------------------------|
---------------------------|
-------5------7-----10--12-|
-2-------------------------|
-0-----3------5------8--10-|


--------------------------------------|
--------------------------------------|
-1111-1111-11111111-12121212--7-7-7-7-|
-9-9--9-9--9-9-9-9--10101010--7-7-7-7-|
-7-7--7-7--7-7-7-7---7-7-7-7--9-9-9-9-|
-0-0--0-0--0-0-0-0---0-0-0-0--0-0-0-0-|




---------------------------------------------------|
---------------------------------------------------|
---------------------------------------------------|
------------5-----7----5p4--------------5----9---9-|
-2------2---3-----5--------5-2-----2----7---10---9-|
-0--000-0--------------------0-000-0----8---10--10-|


-------------------------------------------------|
-------------------------------------------------|
-------------------------------------------------|
--------------------------------------------4445-|
----7---9----7--9--10-9-7-2-----------------5557-|
-00---0---000--0--0-------00000000000000000------|


--------------------------------------------------------|
--------------------------------------------------------|
--------------------------------------------------------|
----------------------9-7-5-----------------------------|
----7---9-----7---9--10-9-7-2---------------------------|
-00---0---000---0---0-------0-0000000000-3h7-00-5h8-5h7-|


-------------------------------|
-------------------------------|
------5-5-5--------------------|
-2h4--5-4h5--5-7---7-10-10p9---|
-2-2--3-3-3--5-5---7--7--7-7---|
-0-0---------3-3---5--5--5-5---|


-----------------------------------------------------------|
-----------------------------------------------------------|
-----------------------------------------------------------|
-----------------------------------------------------------|
----5h7--5h7-5h7-5h7-5h7---------7h10-7h10-5h10-5h10--5h10-|
-00----0----0---0---0---------00-----0----0----0----0------|


------------------------------------------------------------------|
------------------------------------------------------------------|
------------------------------------------------------------------|
------------------------------------------------------------------|
-----7h12-7h12-7h12-7h12--7h12-----6h9---6h10---6h9---6h10---6h9--|
--88-----8----8----8----8-------77-----7------7-----7------7------|

---------------|
---------------|
---------------|
-4--2----------|
-2--0--5-4-5-2-|
-------3-2-3-0-|
 solo section

------------------|--------------|
------------------|--------------|
------x2----------|--------------|
------------------|--------------|
-2---10---7---9---|-------2-3-5--|
-0----8---5---7---|-2-3-5--------|


-----------------------------------------------|
-----------------------------------------------|
-----------------------------------------------|
---------5-----4-------------5-----------------|
-2-------3-----2-------2-----3-----------2-3-5-|
-0---------------------0-----------2-3-5-------|
Добавлено: 17.05.2012
Другие материалы по этой песне:

Страница создана 17.05.2012
http://primanota.ru/trivium/fugue-chords.htm
Привет, Гость.
Предлагаем пройти революционный курс по гитаре.
Подарок от PrimaNota.Ru, забирай!