PrimaNota.ru - самый крупный в мире бесплатный архив песенных текстов, аккордов, табулатур и нот


Trivium - Forsake Not The Dream - текст песни, таба, видео

Регистрация Запомнить меня
Войти через:  Facebook Google Twitter Vk Yandex Mail.ru

Trivium - Forsake Not The Dream - текст песни, таба, видео

Печатать
Просмотров: 266
I tabbed this all from ear, so there is probably a lot of mistakes.

This is the song Forsake not the dream By Trivium off their album In Waves.

pm= palm mute

h= hammer on

p=pull off

Guitar 1: C# G# C# F# A# D#

Guitar 2: C# G# C# F# A# D#

Guitar 1 and 2

Intro and Chorus
|-------------------------------------------------------------------------------------|
|-------------------------------------------------------------------------------------|
|7-7-7-7-X-x-x-x-x-x-x-x-7-7-7-7-x-x-x-x-x-10-10-10-10--9-9-9-9--3-3-3-3-3-3-3-3------|
|--------X-x-x-x-x-x-x-x----------x-x-x-x-x------------------------3-3-3-3-3-3-3-3----|
|5-5-5-5-X-x-x-x-x-x-x-x-5-5-5-5-x-x-x-x-x-8--8--8--8----7-7-7-7--1-1-1-1-1-1-1-1-----|
|-------------------------------------------------------------------------------------|

--------------------|
--------------------|
-5-5-5-5-5-5-5-5----|  x4
-5-5-5-5-5-5-5-5----|
-3-3-3-3-3-3-3-3----|
--------------------|


Verse part 1

|------------------------------------------------------------------|
|------------------------------------------------------------------|
|-----------------------------3-3-3-3-3-3-3-3--5-5-5-5-5-5-5-5-----|
|-0-0-0-0-0-0---0-0-0-0-0-0--3-3-3-3-3-3-3-3--5-5-5-5-5-5-5-5------|  x2
|-0-0-0-0-0-0---0-0-0-0-0-0--1-1-1-1-1-1-1-1--3-3-3-3-3-3-3-3------|
|-0-0-0-0-0-0---0-0-0-0-0-0----------------------------------------|
   pmpmpmpmpmpmpmpmpmpm

Verse part 2

|-------------------------------|---------------------------------------------|
|-------------------------------|---------------------------------------------|
|-------------------------------|---------------------------------------------|
|--12---8----10---8----10-12---|--15------12------14------12-------14--15-----|
|-------------------------------|---------------------------------------------|
|----8-8--8-8--8-8--8-8--8-----|------12-12---12-12---12-12---12-12---12------|
  pmpmpmpmpmppmpmpmpmpmpmpmpmpmpmpmpmpmpmpmpmpmpmpmpmpmpmpm



|------------------------------------------------------------------------------------|
|------------------------------------------------------------------------------------|
|------------------------------------------------------------------------------------|
|--19-----15-------17------15------17--19-----15-----14-----12---14------12----10----|
|------------------------------------------------------------------------------------|
|----15-15---15-15---15-15---15-15---15---------12-12--12-12-------10-10--10-10------|
    pmpmpmpmpmpmpmpmpmpmpmpmpmpmpmpmpmpmpmpmpmpmpmpmpmpmpmpmpmpm

x2


   Verse part 3
|--------------------------------------------------------------------------------|
|--------------------------------------------------------------------------------|
|--------------------------------------------------------------------------------|
|--------------------------------------------------------------------------------|
|--------------------------------------------------------------------------------|
|-8-8-8-8-8-8-8-8-8-8-8-8--10-10-10-10--0-0-0-0-0-0-0-0-0-0--0-0-0-0--2-2-2-2----|
   pm pmpmpmpmpmpmppmpmpmpmpmpmpmpmpmpmpmpmpmpmpm

-------------------------------|
-------------------------------|
-------------------------------|       x2
-------------------------------|
-------------------------------|
-3-3-3-3--10-10-10-10----------|


Verse part 4

1                                                               2
|--------------------------|             |----------------------|
|--------------------------|             |----------------------|
|--------------------------|   x4      |------------------------|
|--------------------------|             |----------------------|
|-5p0---5p0----8p5p0-5h7p5|            |------------------------|
|----5h8---5h8-------------|            |-0-0-0-0---0-0-0-0-----|

Repeat 1


During solos
|---------------------------------------------------------------------------------|
|---------------------------------------------------------------------------------|
|---------------------------------------------------------------------------------|
|--3-3-3-3-3-3-3-3--7-7-7-7-7-7-7-7--10-10-10-10-10-10-10-10-5-5-5-5-5-5-5-5------|
|--1-1-1-1-1-1-1-1--5-5-5-5-5-5-5-5--8--8--8--8--8--8--8--8---3-3-3-3-3-3-3-3-----|
|---------------------------------------------------------------------------------|





Im Still working on the solos and the lead guitar during the verses and chorus, but what 
is here is enough to play the song.

Enjoy!
Добавлено: 06.03.2012
Другие материалы по этой песне:

Страница создана 06.03.2012
http://primanota.ru/trivium/forsake-not-the-dream-chords.htm
Привет, Гость.
Предлагаем пройти революционный курс по гитаре.
Подарок от PrimaNota.Ru, забирай!