PrimaNota.ru - самый крупный в мире бесплатный архив песенных текстов, аккордов, табулатур и нот


Trivium - Decieved - текст песни, таба, бас-таба, видео

Регистрация Запомнить меня
Войти через:  Facebook Google Twitter Vk Yandex Mail.ru

Trivium - Decieved - текст песни, таба, бас-таба, видео

Печатать
Просмотров: 207
TRIVIUM- THE DECIEVED
tuning- D A D G B E for both guitars
tabbed by Brice Plouffe. this is my first tab and im sure its 100% correct
btw, do not comment and tell me different playings like
enharmonic equivalents or different configurations.
if you find an easier way, good for you. this is right and its
how I play it lol. thx
Verse 1:
E|--------------------------------------------------|
B|o-------------------------------------------------|
G|--------------------------------------------------|
D|-4---------------------------4--------------------|
A|o4---------------------------4--------------------|
D|-4-444-444-444-444-444-4-6-7-4-444-444-444-07-642-|
Pm.  ... ... ... ... ...         ... ... ...
E|------------------------------------------------|
B|-----------------------------------------------o|
G|------------------------------------------------|
D|-4---------------------------4-------------0-~--|
A|-4---------------------------4-------------0-~-o|
D|-4-444-444-444-444-444-4-6-7-4-444-444-444-0-~--|
Pm.  ... ... ... ... ...         ... ... ...
Verse 2(this part is cool):
E|-This-is-the-harmony-bit,-sorry-a-little-unclear-|
B|o------------------------------------------------|
G|-------------------------------------------------|
D|---------Gtr.1=2h4p2----Gtr.2=4--4-6-------------|
A|o--------Gtr.2=6h7p6----Gtr.1=5--5-7-------------|
D|-2p0-0000000000-----2p0-000000-00-0-4v-444444----|
Pm.    ..........         ...... .. .    ......
E|Here-Gtr.1-plays-bottom-notes-and-Gtr.2-----------|top-ones\
B|---------------------------------3----------------|
G|-same-here---------6-4-2---2-4-6-4--<-=========---|
D|-7--6-4------------7-6-4-6-4-6-7---------------o--|
A|-------------------------7------------------------|
D|--44-4-4-4v-444444-----------------------------o--|
Pm. .. . .    ...... |Chorus(play harmony AFTER
                                          Repeat):
E|On-pulloffs-gtr1-plays-bottom-and-gtr2-top-notes-|
B|o------------------------------------------------|
G|-------------------------------------------------|
D|--7p0-00--7p0-00-6p0-0--9p0--7p0-4---------------|
A|o--------------------------------4---------------|
D|-11p0-00-11p0-00-9p0-0-12p0-11p0-4-4-444-444-444-|
Pm.                                  . ... ... ...
E|-----------|
B|----------o|
G|-----------|
D|-----------|
A|----------o|
D|-4/666-7777|
Interlude:
E|-------------------------------------------------|
B|-------------------------------------------------|
G|-------------------------------------------------|
D|-0-777-0-777-0-77-2-777-2-777-2-77-4-777-4-777---|
A|-0-777-0-777-0-77-2-777-2-777-2-77-4-777-4-777---|
D|-0-777-0-777-0-77-2-777-2-777-2-77-4-777-4-777---|
Harm.***   ***   **   ***   ***   **   ***   ***
E|--------------------------------------------------|
B|--------------------------------------------------|
G|-14-13-11~-14-13h14p13-11-14-13----14-13h14p13----|
D|--------------------------------14~-----------14~-|
A|--------------------------------------------------|
D|--------------------------------------------------|

E|---------------------------|--------|-----------|
B|---------------------------|--------|-----------|
G|---------------------------|--------|18-16-14-11|
D|-4-77-4-777-4-77-7-77--16\-|0~-2~-4~|x--x--x--x-|
A|-4-77-4-777-4-77-7-77--16\-|0~-2~-4~|16-14-12-13|
D|-4-77-4-777-4-77-7-77--16\-|0~-2~-4~|-----------|
Harm.**   ***   ** * **
E|-------------------------------------------------|
B|o------------------------------------14----------|
G|-14-13-11~-14-13h14p13-11-14-13-11-14--14-13-14--|
D|-------------------------------------------------|
A|o------------------------------------------------|
D|-------------------------------------------------|

E|----------|-------------------|these riffs are not
B|----------|-------------------|chronologically
G|----------|-------------------|written. The single
D|-0~-2~-4~-|/7-6-4~-7-6h7p6-4--|notes are repeated
A|-0~-2~-4~-|-------------------|behind the rhythm
D|-0~-2~-4~-|-------------------|above them.(listen
                                            To CD)
E|----------|-----------------------------------|then both riffs end
B|---------o|-----------------------------------|on this harmony\
G|-13-11----|/6-4-2~-6-4h6p4-2|              ---|
D|-------14-|-----------------|<=============---|
A|---------o|-----------------------------------|from there, play the
D|----------|-----------------------------------|main riff again.

Verse 1 x2
Verse 2 x2
Chorus  x2
Interlude x1
Then:
E|-------|
B|-------|
G|-------|
D|-0~~-0-|
A|-0~~-0-|
D|-0~~-0-|
Friggin' sweet harmony bit:
E|Again,-here-gtr1-plays-bottom-notes-and-gtr2-top|
B|o----------------------------------------------o|
G|---4-6/7-6-4---4-6/7-6-4---4-6/7-6-4---4-6/7-6-4|
D|-7-6-7/9-7-6-6-6-7/9-7-6-4-6-7/9-7-6-6-6-7/9-7-6|
A|o9-----------7-----------5-----------7---------o|
D|------------------------------------------------|
Then(verse 3):
E|--------------------------------------------------|
B|o-------------------------------------------------|
G|--------------------------------------------------|
D|-4444444444-444444442222222222-222222220000000000-|
A|o4444444444-444444442222222222-222222220000000000
D|-4444444444-444444442222222222-222222220000000000
Pm........... .................. ..................
E|----------------------------------|These riffs go
B|----------------------------------|o|together. One
G|----------------------------------|single note riff
D|-000000002222222222-22222222------|for every rhythm.
A|-000000002222222222-22222222o|<---|this may not be
D|-000000002222222222-22222222------|clear(just listen
Pm................... ........  to the CD).
E|------------------------------------------------|
B|o----------------------------------------------o|
G|------------------------------------------------|
D|---6-7/9-6-4---6-7/9-6-4---6-7/9-6-4---6-7/9-6-4|
A|o9-----------7-----------5-----------7---------o|
D|------------------------------------------------|
before the solo, open-stroke the last chord of the rhythm above like so:
E|-------|
B|-------|Yeah,its not exactly like that per se.
G|-------|that chord comes after a bunch of open
D|-2~~~~-|palm muted chords:   D 0000000 just
A|-2~~~~-|                     A 0000000 listen to
D|-2~~~~-|                     D 0000000 the CD.
Rhythm riff for solo:            .......
E|----------------------------------|
B|o--------------------------------o|
G|----------------------------------|
D|-4~-6-7-2~-6-7-0~-6-7-2~-/7-6-7-6-|
A|o4~-6-7-2~-6-7-0~-6-7-2~-/7-6-7-6o|
D|-4~-6-7-2~-6-7-0~-6-7-2~-/7-6-7-6-|
Solo (completely correct :]):
E|Once-again,-gtr1-bottom,-gtr2---------------------|top>>>>>>>>>>>>>>>\
B|-----------------------------------------141517---|
G|----------------6-7p6-9~-11h13p11~-131416141618---|/
D|---6-7-6--6-7-9--------------------141618---------|
A|-9~------9----------------------------------------|
D|--------------------------------------------------|

E|-/21~-19-17-19~---------------17-/21~22-19~------|
B|-/22~-21-19-21~------17-19-21-19-/22~24-21~------|
G|---------------18-19-18-19-21--------------------|
D|---------------19-21-----------------------------|
A|-------------------------------------------------|
D|-------------------------------------------------|
Fast here, people:
E|-2117------172117-------172117------172117-------|
B|-----19--19------19---19------19--19------19-----|
G|-------18----------18-----------18----------18~--|
D|-------------------------------------------------|
A|-------------------------------------------------|
D|-------------------------------------------------|

E|-21-19-17----------------------------------------|
B|-22-21-19----------19~-19191919p17-17~-12-12-12--|
G|----------19-18-16-19~-19191919p18-18~-13-13-13--|
D|----------21-19-18-------------------------------|
A|-------------------------------------------------|
D|-------------------------------------------------|

E|------------------------------------------------|
B|-14-14-14-12-12-15-15-15-14-14-14-12-12---------|
G|-14-14-14-13-13-16-16-16-14-14-14-13-13-14~~~---|
D|----------------------------------------16~~~---|
A|------------------------------------------------|
D|------------------------------------------------|
Then play that verse 3 bit again like twice
then the next solo:(same rhythm riff as before)
E|Again,-gtr1-bottom-notes,-gtr2-tops=>21-19-17-----|
B|-------------------------------------22-21-19-----|
G|-9-----9-----67-13------13---------13--------1918-|
D|--7---7-7--79----11----11-11--111214---------2119-|
A|---979---97-------141214---1412-------------------|
D|--------------------------------------------------|
This part is really fast and hard to play:
E|-----1916------1714------1916------1714----------|
B|121415--17141517--15121415--17141517--15121415---|
G|-------------------------------------------------|
D|-------------------------------------------------|
A|-------------------------------------------------|
D|-------------------------------------------------|
Wb= whole step bend    harmonization again people-\
E|-14--14----14----14----14-----17h19p17-21~<====---|
B|-17wb--17wb--17wb--17wb--17wb-19h21p19-22~<====---|
G|--------------------------------------------------|
D|--------------------------------------------------|
A|--------------------------------------------------|
D|--------------------------------------------------|
   harmony here too
E|-19p17p16-/21-/21~---17p14--16p14--14p12--16p14--|
B|-21p19p17-/22-/22~-------------------------------|
G|-------------------16-----14-----13-----13-------|
D|-------------------------------------------------|
A|-------------------------------------------------|
D|-------------------------------------------------|
                 harmony people
E|-16p14-17p14--/21~-19p17p16-/21~-|
B|--------------/22~-21p19p17-/22~-|
G|---------------------------------|End solo...
D|---------------------------------|
A|---------------------------------|
D|---------------------------------|
then:
E|-------------------|
B|--harmony----------|
G|-/6-4-2~-6-4h6p4-2-|
D|-/7-6-4~-7-6h7p6-4-|
A|-------------------|
D|-------------------|
then play the interlude again except without the
harmonics part and just repeating the part with
this thing:
E|-----------|yeah you know what i mean...
B|-----------|hopefully... listen to the CD
G|18-16-14-11|
D|x--x--x--x-|
A|16-14-12-13|
D|-----------|
now end the song on this riff here:
E|----------|
B|-harmony--|YEAH!!!666!! Trivium is teh
G|-6-4---2\-|shiite!!lol
D|-7-6-6-4\-|
A|-----7----|thanks for your time. please rate and comment
D|----------|OUT!
Добавлено: 21.05.2012
Другие материалы по этой песне:

Страница создана 19.05.2012
http://primanota.ru/trivium/decieved-chords.htm
Привет, Гость.
Предлагаем пройти революционный курс по гитаре.
Подарок от PrimaNota.Ru, забирай!