PrimaNota.ru - самый крупный в мире бесплатный архив песенных текстов, аккордов, табулатур и нот


Trivium - Broken One - таба, бас-таба, видео

Регистрация Запомнить меня
Войти через:  Facebook Google Twitter Vk Yandex Mail.ru

Trivium - Broken One - таба, бас-таба, видео

Печатать
Просмотров: 277

i only figured out coreys part but this sounds almost 100% accurate to me




      S  S  S  S  S  S  S  S  S  S  S  S  S  S  S  S  
E||--15-14-12----12-14-15-14-15-14-12----12-14-15-14-|
B||-----------15----------------------15-------------|
G||--------------------------------------------------|
D||--------------------------------------------------|
A||--------------------------------------------------|
E||--------------------------------------------------|


   S  S  S  S  S  S  S  S  S  S   S  S  S  S  S  S  
-----12-14-15-14-12----12-14-15S-19-17-15----------|
--15----------------15--------------------19-17-15-|
---------------------------------------------------|
---------------------------------------------------|
---------------------------------------------------|
---------------------------------------------------|


   S  S  S  S  S  S  S  S  S  S  S  S  S  S  S  S  
--------------------------------------------------|
--------------------------------------------------|
--17-16-14----------------------------------------|
-----------17-16-14-------------------------------|
--------------------17-15-14----------------14-15-|
-----------------------------17-15-14-15-17-------|


   S  H          S  S  S  S  S  S  S  
-------------------------------------|
-------------------------------------|
-------------------------------------|
-----14~-----------------14-16-17----|
--17------------------------------12-|
----------------12-14-15-------------|


   S  S  S  S  S  S  S  S  S  S  S  S  S  S  S  S  
--------------------------------------------------|
--------------------------17-19-20----------15-17-|
--------14-16-17-------------------14-16-17-------|
-----------------14-16-17-------------------------|
--14-15-------------------------------------------|
--------------------------------------------------|


   S  S  S  S  S  S  S  S  S  S  S  S  S  S  S  S  
-----15-17-19-20-19-17----------------------------|
--19-------------------20-19-17-------------------|
--------------------------------19-17-16----------|
-----------------------------------------19-17-16-|
--------------------------------------------------|
--------------------------------------------------|


   S  S  S  S  S  E    S S S S S S S S S  
----------------------12-0-0-0-7-0-7-8-0-|
-----------------------------------------|
--19-17-16-------16~---------------------|
-----------19-17-------------------------|
-----------------------------------------|
-----------------------------------------|


   S S S  S S S  S  S S  S S S  S S S S  
--10-8-7--------12-10-8--------12-0-0-0-|
---------10-8-7---------10-8-7----------|
----------------------------------------|
----------------------------------------|
----------------------------------------|
----------------------------------------|


  S S S  S S  S  S S  S  S S  S S S Q      
--8-0-8-10-0-12-10-8----------------------|
---------------------12-10-8--------------|
-----------------------------11-9-7-9~----|
------------------------------------------|
------------------------------------------|
------------------------------------------|


  S S S  S  S  S  S  S  S  S  S  S  S  S  S  S  
-----------------------------------------------|
-----------------------------------12-12-12----|
--9-9-9-11-11-11-12-12-12-11-11-11----------14-|
-----------------------------------------------|
-----------------------------------------------|
-----------------------------------------------|


   S  S  S  S  S  S  S  S  S  S  S  S  S  S  S  S  
--------------------------------------------12-14-|
-----------------------------------12-13-15-------|
--14-14-12-12-12-14-14-14-11-12-14----------------|
--------------------------------------------------|
--------------------------------------------------|
--------------------------------------------------|


   S  S  S  S  S  S  S  S  S  W                            
--15-14-12----------------------------------------|-------|
-----------15-13-12----------15brb----------------|-------|
--------------------14-12-14----------------------|-------|
--------------------------------------------------|-------|
--------------------------------------------------|-------|
--------------------------------------------------|-------|


   H         H         H          
--------------------------------||
--15--------13--------12--------||
--------------------------------||
--12--------10---------9--------||
--------------------------------||
--------------------------------||




Duration Legend
---------------
W - whole
H - half
Q - quarter
E - 8th
S - 16th
T - 32nd
X - 64th
. - note dotted
|-n-|  - n-tuplets


Tablature Legend
----------------
L - tied note
x - dead note
g - grace note
(n) - ghost note
> - accentuded note
NH - natural harmonic
AH - artificial harmonic
TH - tapped harmonic
SH - semi harmonic
PH - pitch harmonic
h - hammer on
p - pull off
b - bend
br - bendRelease
pb - preBend
pbr - preBendRelease
brb - bendReleaseBend
\n/ - tremolo bar dip
\n - tremolo bar dive
-/n - tremolo bar Release up
/n\ - tremolo bar inverted dip
/n - tremolo bar return
-\n - tremolo bar Release down
S - shift slide
s - legato slide
/ -  slide into from below or out of upwards
\ -  slide into from above or out of downwards
~ - vibrato
W - wide vibrato
tr - trill
TP - tremolo picking
T - tapping
S - slap
P - pop
< - fade in
^ - brush up
v - brush down
Добавлено: 29.05.2012
Другие материалы по этой песне:

Страница создана 04.04.2012
http://primanota.ru/trivium/broken-one-chords.htm
Привет, Гость.
Предлагаем пройти революционный курс по гитаре.
Подарок от PrimaNota.Ru, забирай!