PrimaNota.ru - самый крупный в мире бесплатный архив песенных текстов, аккордов, табулатур и нот


Trivium - Brave This Storm - таба, видео

Регистрация Запомнить меня
Войти через:  Facebook Google Twitter Vk Yandex Mail.ru

Trivium - Brave This Storm - таба, видео

Печатать
Просмотров: 256
Brave This Storm by Trivium from their upcoming album titled, 'Vengeance Falls'

Drop C# Tuning
Intro
E|--------------------------------------------------------------------------|
B|--------------------------------------------------------------------------|
G|--------------------------------------------------------------------------|
D|--------------------------------------------------------------------------|
A|----------------------------------8-6-5-----------------------------------|
E|-0-0-0-0-0-0-0-0-0-0-0-0-0-0-0-----------0-5b-----------------------------|
   Continuous chugging                       slight bend/harmonic         3x

E|--------------------------------------------------------------------------|
B|--------------------------------------------------------------------------|
G|---------------------------------6b---------------------------------------|
D|--------------------------------------------------------------------------|
A|---------------------------------4b---------------------------------------|
E|-0-0-0-0-0-0-0-0-0-0-0-0-0-0-0--------------------------------------------|
(I know that's not nearly enough zeros written, you can find out the timing)

Pre-Verse:
E|----------------------------------------------------------------------------|
B|----------------------------------------------------------------------------|
G|----------------------------------------------------------------------------|
D|----------------------------------------------------------------------------|
A|----------------------------------------------------------------------------|
E|-0--0--0--2b--2b--0-----0-0-0-----0-0-0-0-----------------------------------|

E|----------------------------------------------------------------------------|
B|----------------------------------------------------------------------------|
G|----------------------------------------------------------------------------|
D|----------------------------------0--2--3-----------------------------------|
A|----------------------------------0--2--3-----------------------------------|
E|-0--0--0--2b--2b--0-----0-0-0-----0--2--3-----------------------------------|

E|----------------------------------------------------------------------------|
B|----------------------------------------------------------------------------|
G|----------------------------------------------------------------------------|
D|----------------------------------------------------------------------------|
A|----------------------------------------------------------------------------|
E|-3--3--3--5b--5b--3-----3-3-3-----3-3-3-3-----------------------------------|

E|----------------------------------------------------------------------------|
B|----------------------------------------------------------------------------|
G|----------------------------------------------------------------------------|
D|----------------------------------6--5--3-----------------------------------|
A|----------------------------------6--5--3-----------------------------------|
E|-3--3--3--5b--5b--3-----3-3-3-----6--5--3-----------------------------------|

Verse:
E|--------------------------------------------------------------------------|
B|--------------------------------------------------------------------------|
G|--------------------------------------------------------------------------|
D|-------------------------------------------------------------0--2--3------|
A|-------------------------------------------------------------0--2--3------|
E|-0--0--0--2b----0-0-0-0--2b--------0--0--0--2b----0-0-0-0----0--2--3------|

E|--------------------------------------------------------------------------|
B|--------------------------------------------------------------------------|
G|--------------------------------------------------------------------------|
D|-------------------------------------------------------------6--5--3------|
A|-------------------------------------------------------------6--5--3------|
E|-3--3--3--5b----3-3-3-3--5b--------3--3--3--5b----3-3-3-3----6--5--3------|

E|--------------------------------------------------------------------------|
B|--------------------------------------------------------------------------|
G|--------------------------------------------------------------------------|
D|-------------------------------------------------------------------0--2--3|
A|---------------------------3-3-3-5-5-5-----------------------------0--2--3|
E|-0--0--0--2b----0-0-0-0--0---------------0--0--0--2b----0-0-0-0--0-0--2--3|

E|--------------------------------------------------------------------------|
B|--------------------------------------------------------------------------|
G|--------------------------------------------------------------------------|
D|-------------------------------------------------------------------6--5--3|
A|---------------------------6-6-6-7-7-7-----------------------------6--5--3|
E|-3--3--3--5b----3-3-3-3--3---------------3--3--3--5b----3-3-3-3--3-6--5--3|

Pre-Chorus:
E|--------------------------------------------------------------------------|
B|--------------------------------------------------------------------------|
G|-----7-----3-----6-----9-----10-----6-----7-------------------------------|
D|-----7-----3-----6-----9-----10-----6-----7-------------------------------|
A|-----5-----1-----4-----7-----8------4-----5---------------8-6-5-----------|
E|-0-0---0-0---0-0---0-0---0-0----0-0---0-0----0-0-0-0-0-0---------0-5b-----|
   I know what you're hiding from

E|--------------------------------------------------------------------------|
B|--------------------------------------------------------------------------|
G|-----7-----3-----6-----9-----10-----6-----7-------------------------------|
D|-----7-----3-----6-----9-----10-----6-----7-------------------------------|
A|-----5-----1-----4-----7-----8------4-----5-------------------------------|
E|-0-0---0-0---0-0---0-0---0-0----0-0---0-0---0-0-0--0-0-0-0-0-0----0-0-0-0-|

Chorus Lead:
E|-----------------------------5--------------------------------------------|
B|---------6---------5-------------------8---------6------------------------|
G|-7-7-7-7---7-7-7-7---7-7-7-7---7-7-7-7---7-7-7-7---7----------------------|
D|--------------------------------------------------------------------------|
A|--------------------------------------------------------------------------|
E|--------------------------------------------------------------------------|
  The waves are crashing oveeeeeeeer

E|-----------------------------5--------------------------------------------|
B|---------8---------6-------------8---6---5h6------------------------------|
G|-5-5-5-5---5-5-5-5---5-5-5-5---5---5---5----------------------------------|
D|--------------------------------------------------------------------------|
A|--------------------------------------------------------------------------|
E|--------------------------------------------------------------------------|
  They pummel me over and oveeeeeeer

E|--------------------------------------------------------------------------|
B|--------------------------------------------------------------------------|
G|---------9---------9---------7---------7---------7-9----------------------|
D|-7-7-7-7---7-7-7-7---7-7-7-7---7-7-7-7---7-7-7-7--------------------------|
A|--------------------------------------------------------------------------|
E|--------------------------------------------------------------------------|
  I don't think I could neveeeer

E|---------5----------3-----------------------------------------------------|
B|---------------------------------6-5-3------------------------------------|
G|----------------------------------------5-3-2-3-5-------------------------|
D|-5-5-5-5----5-5-5-5----5-5-5-5--------------------------------------------|
A|--------------------------------------------------------------------------|
E|--------------------------------------------------------------------------|
   Brave this stooooooooooorm

Chorus Rhythm:
E|--------------------------------------------------------------------------|
B|--------------------------------------------------------------------------|
G|-----------------------------2-2-2-2--------------------------------------|
D|-0-0-0-0-------3-3-3-3-------2-2-2-2------5-5-5-5-------------------------|
A|-0-0-0-0-------3-3-3-3-------0-0-0-0------5-5-5-5-------------------------|
E|-0-0-0-0-------3-3-3-3--------------------5-5-5-5-------------------------|
  Have fun with these chords over the lead

There's a solo here I'm not gonna tab.  I'm sure someone can do that much better than I 
can  After this, just play the verse, pre-chorus and chorus and then there's a breakdown 
type thing:

Breakdown:
E|--------------------------------------------------------------------------|
B|--------------------------------------------------------------------------|
G|--------------------------------------------------------------------------|
D|--------------------------------------------------------------------------|
A|----------5-----8---------------------------------------------------------|
E|-0--0-0-0---0-0---0---0-0-0-0-0---0-0-0-0-0-0-----------------------------|

E|----------------------------------------------------------------------------|
B|----------------------------------------------------------------------------|
G|----------------------------------------------------------------------------|
D|----------------------------------------------------------------------------|
A|----------7-----4-----------------------------------------------------------|
E|-0--0-0-0---0-0---0---0-0-0-0-0---0-0-2-3-----------------------------------|
After the solo, the rhythm guitar during the chorus kicks in with single notes and the 
lead part is slowed down
Добавлено: 29.11.2013
Другие материалы по этой песне:

Страница создана 08.08.2013
http://primanota.ru/trivium/brave-this-storm-chords.htm
Привет, Гость.
Предлагаем пройти революционный курс по гитаре.
Подарок от PrimaNota.Ru, забирай!