PrimaNota.ru - самый крупный в мире бесплатный архив песенных текстов, аккордов, табулатур и нот


Trivium - A View Of Burning Empires - текст песни, таба, видео

Регистрация Запомнить меня
Войти через:  Facebook Google Twitter Vk Yandex Mail.ru

Trivium - A View Of Burning Empires - текст песни, таба, видео

Печатать
Просмотров: 209
As recorded by Trivium
(From the 2000 Album EMBER TO INFERNO)

Transcribed by metal7690
	

Music by Matthew K. Heafy, George Moore, Jason Suecof
Arranged by Matthew K. Heafy

Gtr I (D A D G B E) - 'Untitled'
Gtr II (D A D G B E) - 'Untitled'
Gtr III (D A D G B E) - 'Untitled'

   Part I
    Q=75
    G5                             Bb5
   4/4
    Gtr I
     H            Q      Q          H                 Q        Q
||-------------------------------|----------------------------------------|
||o------------------------------|----------------------------------------|
||-------------------------------|----------------------------------------|
||-------------------------------|----------------------------------------|
||o-13-----------12-----10-------|-15----------------13-------12----------|
||-------------------------------|----------------------------------------|
|
|   Gtr II
|    E S S E S S  S S E  S S S S    E  S  S  E  S  S  S  S  E  S  S  S  S
||-------------------------------|----------------------------------------|
||o--8-8-8-8-8-8--8-8-8--8-8-8-8-|-11-11-11-11-11-11-11-11-11-11-11-11-11-|
||---7-7-7-7-7-7--7-7-7--7-7-7-7-|-10-10-10-10-10-10-10-10-10-10-10-10-10-|
||---5-5-5-5-5-5--5-5-5--5-5-5-5-|--8--8--8--8--8--8--8--8--8--8--8--8--8-|
||o--5-5-5-5-5-5--5-5-5--5-5-5-5-|--8--8--8--8--8--8--8--8--8--8--8--8--8-|
||---5-5-5-5-5-5--5-5-5--5-5-5-5-|--8--8--8--8--8--8--8--8--8--8--8--8--8-|


  F5            A5
   Q      Q      Q        Q
|----------------------------------|
|----------------------------------|
|----------------------------------|
|----------------------------------|
|-12-----13-----12-------10--------|
|----------------------------------|
|
|  E S S  E S S  E  S  S  E  S  S
|----------------------------------|
|--6-6-6--6-6-6-10-10-10-10-10-10--|
|--5-5-5--5-5-5--9--9--9--9--9--9--|
|--3-3-3--3-3-3--7--7--7--7--7--7--|
|--3-3-3--3-3-3--7--7--7--7--7--7--|
|--3-3-3--3-3-3--7--7--7--7--7--7--|


 Part II
  D5                          G5
  H           Q     Q          H            Q      Q
|---------------------------|------------------------------|
|---------------------------|------------------------------|
|---------------------------|------------------------------|
|---------------------------|------------------------------|
|-5-----------7-----8-------|-13-----------12-----10-------|
|---------------------------|------------------------------|
|
| E S S E S S S S E S S S S    E S S E S S  S S E  S S S S
|---------------------------|------------------------------|
|-3-3-3-3-3-3-x-3-3-3-3-3-3-|--8-8-8-8-8-8--8-8-8--8-8-8-8-|
|-2-2-2-2-2-2-x-2-2-2-2-2-2-|--7-7-7-7-7-7--7-7-7--7-7-7-7-|
|-0-0-0-0-0-0-x-0-0-0-0-0-0-|--5-5-5-5-5-5--5-5-5--5-5-5-5-|
|-0-0-0-0-0-0-x-0-0-0-0-0-0-|--5-5-5-5-5-5--5-5-5--5-5-5-5-|
|-0-0-0-0-0-0-x-0-0-0-0-0-0-|--5-5-5-5-5-5--5-5-5--5-5-5-5-|


  Bb5
   H                 Q        Q
|----------------------------------------|
|----------------------------------------|
|----------------------------------------|
|----------------------------------------|
|-15----------------13-------12----------|
|----------------------------------------|
|
|  E  S  S  E  S  S  S  S  E  S  S  S  S
|----------------------------------------|
|-11-11-11-11-11-11-11-11-11-11-11-11-11-|
|-10-10-10-10-10-10-10-10-10-10-10-10-10-|
|--8--8--8--8--8--8--8--8--8--8--8--8--8-|
|--8--8--8--8--8--8--8--8--8--8--8--8--8-|
|--8--8--8--8--8--8--8--8--8--8--8--8--8-|


  F5            A5                  D5
   Q      Q      Q        Q         H           Q     Q         7x
|---------------------------------|-----------------------------||
|---------------------------------|----------------------------o||
|---------------------------------|-----------------------------||
|---------------------------------|-----------------------------||
|-12-----13-----12-------10-------|-5-----------7-----8--------o||
|---------------------------------|-----------------------------||
|
|  E S S  E S S  E  S  S  E  S  S   E S S E S S S S E S S S S   7x
|---------------------------------|-----------------------------||
|--6-6-6--6-6-6-10-10-10-10-10-10-|-3-3-3-3-3-3-3-3-3-3-3-3-3--o||
|--5-5-5--5-5-5--9--9--9--9--9--9-|-2-2-2-2-2-2-2-2-2-2-2-2-2---||
|--3-3-3--3-3-3--7--7--7--7--7--7-|-0-0-0-0-0-0-0-0-0-0-0-0-0---||
|--3-3-3--3-3-3--7--7--7--7--7--7-|-0-0-0-0-0-0-0-0-0-0-0-0-0--o||
|--3-3-3--3-3-3--7--7--7--7--7--7-|-0-0-0-0-0-0-0-0-0-0-0-0-0---||



Duration Legend
---------------
W - whole; H - half; Q - quarter; E - 8th; S - 16th; T - 32nd; X - 64th; a - acciaccatura
+ - note tied to previous; . - note dotted; .. - note double dotted
Uncapitalized letters represent notes that are staccato (1/2 duration)
Irregular groupings are notated above the duration line
Duration letters will always appear directly above the note/fret number it represents the
duration for.  Duration letters with no fret number below them represent rests.  Multi-
bar rests are notated in the form Wxn, where n is the number of bars to rest for.  Low
melody durations appear below the staff

Tablature Legend
----------------
 h   - hammer-on
 p   - pull-off
 b   - bend
 pb  - pre-bend
 r   - bend release (if no number after the r, then release immediately)
 /\  - slide into or out of (from/to "nowhere")
 s   - legato slide
 S   - shift slide
 - natural harmonic
[n]  - artificial harmonic
n(n) - tapped harmonic
 ~   - vibrato
 tr  - trill
 T   - tap
 TP  - trem. picking
 PM  - palm muting
\n/  - tremolo bar dip; n = amount to dip
 \n  - tremolo bar down
 n/  - tremolo bar up
/n\  - tremolo bar inverted dip
 =   - hold bend; also acts as connecting device for hammers/pulls
 <> - volume swell (louder/softer)
 x   - on rhythm slash represents muted slash
 o   - on rhythm slash represents single note slash

Misc Legend
-----------
 |  - bar
||  - double bar
||o - repeat start
o|| - repeat end
*|  - double bar (ending)
 :  - bar (freetime)
 $  - Segno
 &  - Coda
Tempo markers -  = BPM(8/16=s8/s16), where s8 = swing 8ths, s16 = swing 16ths

Добавлено: 26.11.2013
Другие материалы по этой песне:

Страница создана 13.03.2012
http://primanota.ru/trivium/a-view-of-burning-empires-chords.htm
Привет, Гость.
Предлагаем пройти революционный курс по гитаре.
Подарок от PrimaNota.Ru, забирай!