PrimaNota.ru - самый крупный в мире бесплатный архив песенных текстов, аккордов, табулатур и нот


Triumph - When A Heart Breaks - таба, видео

Регистрация Запомнить меня
Войти через:  Facebook Google Twitter Vk Yandex Mail.ru

Triumph - When A Heart Breaks - таба, видео

Печатать
Просмотров: 66
Triumph: When A Heart Breaks (Solo)
Tabbed By: Jason Medeiros

(Standard Tuning)


[Solo]
(2:16)                                   (2:21)
|----------------------------------------|----------------------------|
|----------------------------------------|----------------------------|
|----13-15--16-16--15-13-----------------|----------------------------|
|-13---------------------16---14-13------|-13-14-15-14---13-11--------|
|------------------------------------16--|---------------------14-13--|
|----------------------------------------|----------------------------|

           (2:25)
|----------|----------------------------------------------------------|
|----------|--------------16--14-16-14--------14-15---------17-16---14|
|----------|----13-15-16------------------16---------13-15------------|
|----------|-13-------------------------------------------------------|
|11--------|----------------------------------------------------------|
|---13-11--|----------------------------------------------------------|

                                      (2:35)
|----------------------------------14-|-------------------------------|
|----14-16--------17-16---14----------|-------------------------------|
|-16---------16---------------16------|-------15-16-18-16-15----------|
|-------------------------------------|-16-18----------------18-------|
|-------------------------------------|-------------------------------|
|-------------------------------------|-------------------------------|


|------------------------------|----------------16---20-18-19---------|
|----------16-17-19-17-16------|-------16-17-19-----------------------|
|-15-16-18----------------18---|-16-18--------------------------------|
|------------------------------|--------------------------------------|
|------------------------------|--------------------------------------|
|------------------------------|--------------------------------------|

_________________________________________________________________
     
Добавлено: 26.09.2013
Вам также может быть интересно:
Другие материалы по этой песне:
  • Аккорды и текст

Страница создана 26.09.2013
http://primanota.ru/triumph/when-a-heart-breaks-chords.htm
Привет, Гость.
Предлагаем пройти революционный курс по гитаре.
Подарок от PrimaNota.Ru, забирай!