PrimaNota.ru - самый крупный в мире бесплатный архив песенных текстов, аккордов, табулатур и нот


Tristam - The Vine - аккорды и текст, видео

Регистрация Запомнить меня
Войти через:  Facebook Google Twitter Vk Yandex Mail.ru

Tristam - The Vine - аккорды и текст, видео

Печатать
Просмотров: 237
The Vine
Tristam
Capo 1 (Chords written as played with capo)

Intro: Am F G C Am F G Asus2

Am
Follow the vine

F                       G
Count the leaves to the root

Am
Trace back the lines

F                         G
And you will find out the truth

Am
Take back the time 

F                         G
That you have spent being lied to

       Am
As you change


The days will follow

F     G
Every step you take

      e|----------------------------------------------------------------|
      B|----------------------------------------------------------------|
      G|----------------------------------------------------------------|
      D|2222222---------333-------------22222222--------333------0------|
      A|--------0000000----0-00222222222--------00000000---0-002--32-320|
      E|----------------------------------------------------------------|
Chords: Am      F       F      G        Am      F       F      G

      e|----------------------------------------------------------------|
      B|----------------------------------------------------------------|
      G|------------------------------------------------------0---------|
      D|2--02-0-----0-23---33-20--0000002--02-0-----0-23----3--2--0--2--|
      A|-------3-------------------------------3------------------------|
      E|----------------------------------------------------------------|
Chords: Am      F       F       G       Am      F       F       G        

      e|----------------------------------------------------------------|
      B|------------------------------10--------------------------------|
      G|---------------0-------------------------------0------------0---|
      D|2-------2-------0--2----0-------2-------2-------0--2----0-----2-|
      A|---3---0---3-----------0---3-------3---0---3-----------0--3-----|
      E|----------------------------------------------------------------|
Chords: Am                     G        Am                     G

      e|----------------------------------------------------------------|
      B|------------------------------10--------------------------------|
      G|---------------0-------------------------------0----------------|
      D|2-------2-------0--2----0-------2-------2-----------0-----------|
      A|---3---0---3-----------0---3-------3---0---3----3--3-32---------|
      E|----------------------------------------------------------------|
Chords: Am                     G        Am                    G

Am F G x4

Am
Follow the vine

F                       G
Count the leaves to the root

Am
Trace back the lines

F                         G
And you will find out the truth

Am
Take back the time 

F                         G
That you have spent being lied to

       Am
As you change


The days will follow

F     G
Every step you take

      e|----------------------------------------------------------------|
      B|----------------------------------------------------------------|
      G|----------------------------------------------------------------|
      D|2222222---------333-------------22222222--------333------0------|
      A|--------0000000----0-00222222222--------00000000---0-002--32-320|
      E|----------------------------------------------------------------|
Chords: Am      F       F      G        Am      F       F      G

      e|----------------------------------------------------------------|
      B|----------------------------------------------------------------|
      G|------------------------------------------------------0---------|
      D|2--02-0-----0-23---33-20--0000002--02-0-----0-23----3--2--0--2--|
      A|-------3-------------------------------3------------------------|
      E|----------------------------------------------------------------|
Chords: Am      F       F       G       Am      F       F       G        

      e|----------------------------------------------------------------|
      B|------------------------------10--------------------------------|
      G|----------------------------------------------------------------|
      D|2-------2----------0----0-------2-------2--------020-----020----|
      A|---3---0---3---03------0---3-------3---0---3---03-----3-3-----3-|
      E|----------------------------------------------------------------|
Chords: Am                     G        Am                     G

      e|----------------------------------------------------------------|
      B|------------------------------10--------------------------------|
      G|----------------------------------------------------------------|
      D|2-------2----------0----0-------2-------2--------3200-----------|
      A|---3---0---3---03------0---3-------3---0---3---03---------------|
      E|----------------------------------------------------------------|
Chords: Am                     G        Am               F     G

Outro: Am
Добавлено: 11.05.2016
Вам также может быть интересно:
Другие материалы по этой песне:
  • Аккорды и текст

Страница создана 11.05.2016
http://primanota.ru/tristam/vine-chords.htm
Привет, Гость.
Предлагаем пройти революционный курс по гитаре.
Подарок от PrimaNota.Ru, забирай!