PrimaNota.ru - самый крупный в мире бесплатный архив песенных текстов, аккордов, табулатур и нот


Tristam - My Friend - таба, видео

Регистрация Запомнить меня
Войти через:  Facebook Google Twitter Vk Yandex Mail.ru

Tristam - My Friend - таба, видео

Печатать
Просмотров: 260
Email: cubingdude@gmail.com

This is first tab so here goes nothing...

(h) Hammer On  (p) Pull Off (v) Vibrato (/) Slide Up

Pre-Chorus:


E|--------------------------------------------------------------------------------------|
B|--4--4--4--4--3--6--3-------------------------3--3--3--3--3--3--3--6-------------3h4--|
G|-------------------------3--3--3--3--3--3--5--------------------------3--5----5-------|
D|--------------------------------------------------------------------------------------|
A|--------------------------------------------------------------------------------------|
E|--------------------------------------------------------------------------------------|

E|------------------------------------------------------------------------------|
B|--4--4--4--4--4p3--6--3-------------------------3----3--3--3--6--3------------|
G|---------------------------3--3--3--3--3--3--5----------------------5--3--5v--|
D|------------------------------------------------------------------------------|
A|------------------------------------------------------------------------------|
E|------------------------------------------------------------------------------|


Chorus:

E|-----8--8-----6--6--------6--6--------3--5--6--|
B|--4--------6--------4--3--------3--------------|
G|-----------------------------------5-----------|
D|-----------------------------------------------|
A|-----------------------------------------------|
E|-----------------------------------------------|

E|-----8--8-----6--6--------6--6--------3--------|
B|--4--------6--------4--3--------3--------------|
G|-----------------------------------5-----------|
D|-----------------------------------------------|
A|-----------------------------------------------|
E|-----------------------------------------------|

E|--------------------------------------------6--|
B|--4-----4-----4-----4-----4-----4-----4--------|
G|-----3-----3-----3-----3-----3-----3-----3-----|
D|-----------------------------------------------|
A|-----------------------------------------------|
E|-----------------------------------------------|

E|--------------------------------------------5/6--|
B|--6-----6-----6-----6-----6-----6-----6----------|
G|-----3-----3-----3-----3-----3-----3-----3-------|
D|-------------------------------------------------|
A|-------------------------------------------------|
E|-------------------------------------------------|

E|--------------------------------------------8p5--|
B|--3-----3-----3-----3-----3-----3-----3----------|
G|-----3-----3-----3-----3-----3-----3-----3-------|
D|-------------------------------------------------|
A|-------------------------------------------------|
E|-------------------------------------------------|

E|--------1-----------------5-----------1-----6p3--|
B|--1-----------1-----1-----------1----------------|
G|-----2-----2-----2-----2-----2-----2-----2-------|
D|-------------------------------------------------|
A|-------------------------------------------------|
E|-------------------------------------------------|
Добавлено: 22.07.2015
Другие материалы по этой песне:
  • Аккорды и текст

Страница создана 22.07.2015
http://primanota.ru/tristam/my-friend-chords.htm
Привет, Гость.
Предлагаем пройти революционный курс по гитаре.
Подарок от PrimaNota.Ru, забирай!