PrimaNota.ru - самый крупный в мире бесплатный архив песенных текстов, аккордов, табулатур и нот


Tristam - Crave - таба, видео

Регистрация Запомнить меня
Войти через:  Facebook Google Twitter Vk Yandex Mail.ru

Tristam - Crave - таба, видео

Печатать
Просмотров: 137
Tabbed by: DeathMelancholy
E-mail: arthur.mc-brett@hotmail.fr

Tuning: Standard (EADGBE)

Chord progression goes like: C#m - E - B F#

Melody I

e|---------------------------------------------------------------------------|
B|---------------------------------------------------------------------------|
G|------4--------4-----------4-----------6-----------------------------------|
D|---------------------------------------------------------------------------|
A|-7-4----4-6-7-----7-6--2-----2-4----4-----2-4-6----------------------------|
E|---------------------------------------------------------------------------|

e|---------------------------------------------------------------------------|
B|--------------------4------------------------------------------------------|
G|--------4---------------------------4--------------------------------------|
D|---------------------------------------------------------------------------|
A|-7--4-------4-6--7------7--6-----2-----2--4--------------------------------|
E|---------------------------------------------------------------------------|

Melody II

e|---------------------------------------------------------------------------|
B|---------12------------------12-------------12-----------------14----------|
G|---------------------------------------------------------------------------|
D|-14--11----------11--13--11------14--13--9-------9--11-----11-----9--11--13|
A|---------------------------------------------------------------------------|
E|---------------------------------------------------------------------------|

e|-----------------------------11--------------------------------------------|
B|----------12-----------------------------------12--------------------------|
G|---------------------------------------------------------------------------|
D|-14--11---------11--13--11--------14--13--9--------9--11-------------------|
A|---------------------------------------------------------------------------|
E|---------------------------------------------------------------------------|

Solo (kind of)

e|---------------------------------------------------------------------------|
B|---------------------------------12----------------------------------------|
G|-9-9-9-9-------8-9-9-9-9-------8----8-8-8-8------------------11-8----------|
D|-----------11---------------11----------------8-9-11-11-11-----------------|
A|---------------------------------------------------------------------------|
E|---------------------------------------------------------------------------|
Добавлено: 11.05.2016
Другие материалы по этой песне:
  • Аккорды и текст

Страница создана 11.05.2016
http://primanota.ru/tristam/crave-chords.htm
Привет, Гость.
Предлагаем пройти революционный курс по гитаре.
Подарок от PrimaNota.Ru, забирай!