PrimaNota.ru - самый крупный в мире бесплатный архив песенных текстов, аккордов, табулатур и нот


Trist - Ticho Je Svobodou - таба, видео

Регистрация Запомнить меня
Войти через:  Facebook Google Twitter Vk Yandex Mail.ru

Trist - Ticho Je Svobodou - таба, видео

Печатать
Просмотров: 91
Уроки эстрадного вокала в Санкт-Петербурге
-------------------------------------------------------------------------------
                             Ticho Je Svobodou - Trist
-------------------------------------------------------------------------------
Tabbed by:Psykotisk
E-mail:Mortaskuld64@gmail.com

Tuning:Standard

e|-------------------------------------------------------------------------------|
B|-------------------------------------------------------------------------------|
G|-------------------------------------------------------------------------------|
D|--9----------------------------------------------------------------------------|
A|--10--9------------------------------------------------------------------------|
E|--0--10------------------------------------------------------------------------|

e|-----------------------------------------------------------------------------------|
B|-----------------------------------------------------------------------------------|
G|-----------------------------------------------------------------------------------|
D|-----9-----------9-----------------------------------------------------------------|
A|--7--7--7--10-9--7-----------------------------------------------------------------|
E|--8--0--8--8--0--0-----------------------------------------------------------------|


************************************

| /   slide up
| \   slide down
| h   hammer-on
| p   pull-off
| ~   vibrato
| +   harmonic
| x   Mute note
| b   Bend
| pb  Pre-bend
| br  Bend release
| pbr Pre-bend release
| brb Bend release bend

************************************
Добавлено: 18.11.2015
Другие материалы по этой песне:
  • Аккорды и текст

Страница создана 18.11.2015
http://primanota.ru/trist/ticho-je-svobodou-chords.htm
Привет, Гость.
Предлагаем пройти революционный курс по гитаре.
Подарок от PrimaNota.Ru, забирай!