PrimaNota.ru - самый крупный в мире бесплатный архив песенных текстов, аккордов, табулатур и нот


Trisha Yearwood - Im Still Alive - аккорды и текст, видео

Регистрация Запомнить меня
Войти через:  Facebook Google Twitter Vk Yandex Mail.ru

Trisha Yearwood - Im Still Alive - аккорды и текст, видео

Печатать
Просмотров: 106
Авторы музыки: Matraca Berg

Im Still Alive
Trisha Yearwood
--------------------------
Artist:   Trisha Yearwood
Album:    Real live woman
Song:     I'm still alive
--------------------------

Note:

This is my first attemt to get some chords from a song so it
may not be as correct, but it's a start :)

Enjoy
/Lasse Edsvik
 

Chords used:

Em:         C:        G:        D:

--0--     --0--     --3--     --2--
--0--     --1--     --3--     --3--
--0--     --0--     --0--     --2--
--2--     --2--     --0--     --0--
--2--     --3--     --2--     -----
--0--     -----     --3--     -----


Em C G D (Repeat 4 times)
D C (Repeat 2 times) 

Then back to: Em C G D

Chorus: G D C Em (not sure about that)
     
Добавлено: 11.11.2013
Другие материалы по этой песне:
  • Аккорды и текст

Страница создана 25.06.2012
http://primanota.ru/trisha-yearwood/im-still-alive-chords.htm
Привет, Гость.
Предлагаем пройти революционный курс по гитаре.
Подарок от PrimaNota.Ru, забирай!