PrimaNota.ru - самый крупный в мире бесплатный архив песенных текстов, аккордов, табулатур и нот


Triptykon - Goetia - таба, видео

Регистрация Запомнить меня
Войти через:  Facebook Google Twitter Vk Yandex Mail.ru

Triptykon - Goetia - таба, видео

Печатать
Просмотров: 180
-------------------------------------------------------------------------------
                             Goetia - Triptykon
-------------------------------------------------------------------------------

Tabbed by: Eparistera_Daimones
Email: tbbegravelse@gmail.com

Tuning: B standard


Intro:
I think he is using some sort of delay or echo, i've tabbed the repeats in case 
you don't have/own a delay pedal.

B |-----------------------------------------------------------------------0----|
F#|-----------------------------------------------------------------------0----|
D |-----------------------------------------------------------------------0----|
A |---12-12--12-12-\-11-11------4-4--4-4-\-3-3------10-10--10-10--\-9-----8----|
E |---12-12--12-12-\-11-11------4-4--4-4-\-3-3------10-10--10-10--\-9-----8----|
B |---10-10—-10-10-\-9--9-------2-2--2-2-\-1-1------8--8---8--8---\-7-----6----|

Riff A:
(let each note ring)

B |------------------------------||-----------------------------------|
F#|------------------------------||-----------------------------------|
D |------------------------------||-----------------------------------|
A |------------------------------||-----------------------------------|
E |------------------------------||-----------------------------------|
B |------0--------4-------3/10---||------0-------4--------3--------2--|


Riff B: (first its clean tone and then distortion kicks in)

Listen to the song to get the correct timing.
B |----------------------------------------------------|
F#|----------------------------------------------------|
D |----------------------------------------------------|
A |----------------------------------------------------|
E |-----0---0---0---0---0---0---0----0-0---0-0---0-----|
B |---4---4---4---4---4---4---4----3-----3-----3---3---|


RIFF C:

B |------------------------------------------------------|
F#|------------------------------------------------------|
D |------------------------------------------------------|
A |------------------------------------------------------|
E |------------------------------------------4---3----1--|
B |--1-000000000-1-000000000-1-0000000000------3---2-----|



<>


Riff D:

Listen to the song to get the pm pattern

B |---------------------------------------------------------------------------|
F#|---------------------------------------------------------------------------|
D |---------------------------------------------------------------------------|
A |---------------------------------------------------------------------------|
E |--2--222-2--2222-2-222---------------2--222-2--2222-2-222----6--------3-2--|
B |--0--000-0--0000-0-000----1b-1b-1b---0--000-0--0000-0-000------5-4--3------|
        *** *  ****   ***                  *** *  ****   *** 

<>

<>

<>

<>


Riff E: 3X
Let the notes ring
B |-----------------------------------|
F#|-----------------------------------|
D |-----------------------------------|
A |-----------------------------------|
E |--------7----6-------------7----8--|
B |---0------------------0------------|


Riff F:

B |----------------------------------------------------------------|
F#|----------------------------------------------------------------|
D |----------------------------------------------------------------|
A |--------------------------------------------------------\7--10--|
E |--2--------2--------2--------2--------2--------2--------\5--8---|
B |--0--0000--0--0000--0--0000--0--0000--0--0000--0--0000----------|
        ****     ****     ****     ****     ****     ****


RIFF G:
which is a slight variation of Riff A:
Let it ring

B |-----------------------------|
F#|-----------------------------|
D |-----------------------------|
A |-----------------------------|
E |-----------------------------|
B |---0------4------0------3----|


<>


Riff H:

B |------------------------------------------------------------|
F#|------------------------------------------------------------|
D |------------------------------------------------------------|
A |--------4---------4---7----------------333---7--------------|
E |------3---------3-----6----------------333---6--------------|
B |--5---------5---------4(let it ring)---111---4(let it ring)-|
                                          ***


Riff I:

B |----------------------------|
F#|----------------------------|
D |----------------------------|
A |----------------------------|
E |---2--22--2-22------8-----4-|
B |---0--00--0-00---6-----5----|
      *  **  * **
    

<>
<>

RIFF J:
Listen to the song for timing
B |--------------------------------------------------------------------------------------------|
F#|--------------------------------------------------------------------------------------------|
D |--------------------------------------------------------------------------------------------|
A |--------------------------------------------------------------------------------------------|
E |--------------------------------------------------------------------------------------------|
B |---3--3--3--3--3--3--3----4vvvvvvvvvvv-(bend slightly while you hit the notes a.k.a vibrato)|



Riff K:

B |-------------------------------------------------|
F#|-------------------------------------------------|
D |-------------------------------------------------|
A |-------------------------------------------------|
E |-------7---------------------7-------------------|
B |--0------6--6/5--5/3----0------6--6/5--5/3--3/5--|


Repeat Riff J until the end and hit:

E |-2---|
B |-0---|
 

Not sure if its 100% perfect, but at least 99,9% accurate, enjoy the grimness!
Support Triptykon, buy the "Eparistera Daimones" album!

************************************

| /   slide up
| \   slide down
| h   hammer-on
| p   pull-off
| ~   vibrato
| +   harmonic
| x   Mute note
| b   Bend
| pb  Pre-bend
| br  Bend release
| pbr Pre-bend release
| brb Bend release bend

************************************
Добавлено: 23.03.2012
Другие материалы по этой песне:
  • Аккорды и текст

Страница создана 23.03.2012
http://primanota.ru/triptykon/goetia-chords.htm
Привет, Гость.
Предлагаем пройти революционный курс по гитаре.
Подарок от PrimaNota.Ru, забирай!