PrimaNota.ru - самый крупный в мире бесплатный архив песенных текстов, аккордов, табулатур и нот


Trip - Innocent Of D High School Dxd Opening - таба, видео

Регистрация Запомнить меня
Войти через:  Facebook Google Twitter Vk Yandex Mail.ru

Trip - Innocent Of D High School Dxd Opening - таба, видео

Печатать
Просмотров: 110
                             ~ TRIP -INNOCENT OF D- ~

Intro:
 
  /~~~~~~PALM~MUTE~~~~~~\
e|-----------------------|-----------------------11----------------------------|
B|-----------------------|--11-b--9--8--9--8--9--------11-b--9--8--9--8--9-----|
G|-----------------------|--------------------------------------------------8--|
D|-----------------------|-----------------------------------------------------|
A|-----------------------|-----------------------------------------------------|
E|--4--3--1--3--1--2--0--|-----------------------------------------------------|
 
e|-----------------------11----8------8-----------------------|
B|--11-b--9--8--9--8--9-----------11-----9--11-b--9--8--9-----|
G|---------------------------------------------------------8--|
D|------------------------------------------------------------|
A|------------------------------------------------------------|
E|------------------------------------------------------------|
 
 
Verse/Estrofa:
 
GUITAR 1:
 
e|------------------------------------------------------------|
B|------------------------------------------------------------|
G|--------5--------------5--------------6--------------8------|
D|-----3------3-------5------5-------6------6-------6------6--|
A|--3--------------3--------------4--------------6------------|
E|------------------------------------------------------------|
 
GUITAR 2:
 
e|------------------------------------------------------------------------------|
B|----------------------11--13-------------------------11-----------------------|
G|--13--12--13--12--13--------------------13---13--13------13-------------------|
D|------------------------------13--13-------------------------13--11---10--10--|
A|------------------------------------------------------------------------------|
E|------------------------------------------------------------------------------|
 
GUITAR 1:
 
e|------------------------------------------|
B|--9----6-----------9----6-----------------|
G|------------5----------------5--6--5------|
D|---------------------------------------6--|
A|------------------------------------------|
E|------------------------------------------|
 
GUITAR 2:
 
e|----------------------------------------------------------------------|
B|----------------------------------------------------------11----------|
G|--10---10--12--13--12------13-----------------13--12--13----------13--|
D|-----------------------13-------13--13----13------------------13------|
A|----------------------------------------------------------------------|
E|----------------------------------------------------------------------|
 
 
Pre-Chorus/Pre-Estribillo:
 
GUITAR 1:
 
e|------------------------|
B|------------------------|
G|--5------5---6---8------|
D|--5------5---6---8---6--|
A|--3------3---4---6---6--|
E|---------------------4--|
 
GUITAR 2:
 
e|--------------------------------------------------------------------|
B|------------------------------13--11--------------------------------|
G|--12--12--12--12--10--9---------------13----13--13--12--10--12--13--|
D|--------------------------10----------------------------------------|
A|--------------------------------------------------------------------|
E|--------------------------------------------------------------------|
 
GUITAR 1:
 
e|---------------------------------------------------------------------------------------------------------|
B|---------------------------------------------------------------------------------------------------------|
G|--6--x--x--x---x--x--x--x---8--x--x--x---x--x--x--x------------------------------------------------------|
D|--6--x--x--x---x--x--x--x---8--x--x--x---x--x--x--x---6--x--x--x---x--x--x--x---8--x--x--x---x--x--x--x--|
A|--4--x--x--x---x--x--x--x---6--x--x--x---x--x--x--x---6--x--x--x---x--x--x--x---8--x--x--x---x--x--x--x--|
E|------------------------------------------------------4--x--x--x---x--x--x--x---6--x--x--x---x--x--x--x--|
 
GUITAR 2:
 
e|----------------------------------------------------------|
B|------------------------------------------------------11--|
G|----------10--------10--12----13--13--13--13--12--13------|
D|--11--13--------13----------------------------------------|
A|----------------------------------------------------------|
E|----------------------------------------------------------|
 
 
Chorus/Estribillo:
 
GUITAR 1:
 
e|--------------------------------|
B|--------------------------------|
G|--9--7--5------7------5------7--|
D|--------5------7------5------7--|
A|--7--5--3------5------3------5--|
E|--------------------------------|
 
GUITAR 2:
 
e|------------------------------------------------------------------------------------|
B|------13--13--13--13--13--13--12----------------13--13--13--13--13--13--12----------|
G|----------------------------------12--12------------------------------------12--12--|
D|--14----------------------------------------14--------------------------------------|
A|------------------------------------------------------------------------------------|
E|------------------------------------------------------------------------------------|
 
GUITAR 1:
 
e|---------------------------------------------------------------------------------------------------------|
B|---------------------------------------------------------------------------------------------------------|
G|---------------------------------------------------------------------------------------------------------|
D|--3--x--x--x---x--x--x--x---5--x--x--x---x--x--x--x---7--x--x--x---x--x--x--x---7--x--x--x---x--x--x--x--|
A|--3--x--x--x---x--x--x--x---5--x--x--x---x--x--x--x---7--x--x--x---x--x--x--x---7--x--x--x---x--x--x--x--|
E|--1--x--x--x---x--x--x--x---3--x--x--x---x--x--x--x---5--x--x--x---x--x--x--x---5--x--x--x---x--x--x--x--|
 
GUITAR 2:
 
e|------------------------------------------------|
B|--13----10--12--13--12--10------12--12--13--10--|
G|----------------------------12------------------|
D|------------------------------------------------|
A|------------------------------------------------|
E|------------------------------------------------|
 
GUITAR 1:
 
e|--------------------------------|
B|--------------------------------|
G|--9--7--5------7------5------7--|
D|--------5------7------5------7--|
A|--7--5--3------5------3------5--|
E|--------------------------------|
 
GUITAR 2:
 
e|------------------------------------------------------------------------------------|
B|------13--13--13--13--13--13--12----------------13--13--13--13--13--13--12----------|
G|----------------------------------12--12------------------------------------12--12--|
D|--14----------------------------------------14--------------------------------------|
A|------------------------------------------------------------------------------------|
E|------------------------------------------------------------------------------------|
 
GUITAR 1:
 
e|---------------------------------------------------------------------------------------------------------|
B|---------------------------------------------------------------------------------------------------------|
G|---------------------------------------------------------------------------------------------------------|
D|--3--x--x--x---x--x--x--x---5--x--x--x---x--x--x--x---7--x--x--x---x--x--x--x---7--x--x--x---x--x--x--x--|
A|--3--x--x--x---x--x--x--x---5--x--x--x---x--x--x--x---7--x--x--x---x--x--x--x---7--x--x--x---x--x--x--x--|
E|--1--x--x--x---x--x--x--x---3--x--x--x---x--x--x--x---5--x--x--x---x--x--x--x---5--x--x--x---x--x--x--x--|
 
GUITAR 2:
 
e|-----------------------------------------------------|
B|--10----10------10--12---------------12--10--12--13--|
G|------------12------------12----9--------------------|
D|-----------------------------------------------------|
A|-----------------------------------------------------|
E|-----------------------------------------------------|
 
GUITAR 1:
 
e|-----------|
B|-----------|
G|-----------|
D|--7--5--3--|
A|--7--5--3--|
E|--5--3--1--|
 
GUITAR 2:
 
e|--------------|
B|--13--12--10--|
G|--------------|
D|--------------|
A|--------------|
E|--------------|
 
GUITAR 1:
 
e|--------------------------|
B|--------------------------|
G|--------------------------|
D|--3------5------7------7--|
A|--3------5------7------7--|
E|--1------3------5------5--|
 
GUITAR 2:
 
e|------------------------------------------|
B|--10--10--10--------------12--12--13--10--|
G|--------------12--10--9-------------------|
D|------------------------------------------|
A|------------------------------------------|
E|------------------------------------------|
 
 
Outro:
 
e|-----------------------11----------------------------|
B|--11-b--9--8--9--8--9--------11-b--9--8--9--8--9-----|
G|--------------------------------------------------8--|
D|-----------------------------------------------------|
A|-----------------------------------------------------|
E|-----------------------------------------------------|
 
e|-----------------------11----8------8-----------------------|
B|--11-b--9--8--9--8--9-----------11-----9--11-b--9--8--9-----|
G|---------------------------------------------------------8--|
D|------------------------------------------------------------|
A|------------------------------------------------------------|
E|------------------------------------------------------------|
Добавлено: 16.06.2016
Вам также может быть интересно:
Другие материалы по этой песне:
  • Аккорды и текст

Страница создана 16.06.2016
http://primanota.ru/trip/innocent-of-d-high-school-dxd-opening-chords.htm
Привет, Гость.
Предлагаем пройти революционный курс по гитаре.
Подарок от PrimaNota.Ru, забирай!