PrimaNota.ru - самый крупный в мире бесплатный архив песенных текстов, аккордов, табулатур и нот


Trioscapes - Curse Of The Ninth - бас-таба, видео

Регистрация Запомнить меня
Войти через:  Facebook Google Twitter Vk Yandex Mail.ru

Trioscapes - Curse Of The Ninth - бас-таба, видео

Печатать
Просмотров: 117
"Curse of the Ninth"
Trioscapes - https://www.facebook.com/trioscapes
Dan Briggs on Bass
Tuning is half step down.

Bass solo begins at 3:19 and loops X-Z. Please listen to the timing.

Riff "X"
F#|-8------------7-------------8------------7------------|
C#|---10------------8-10---------10------------8-10------|
G#|---------10-------------10----------10-------------10-|
D#|-------8---------------8----------8---------------8---|
A#|------------------------------------------------------|

F#|-13------------13----------------|
C#|----15--------------15-----------|
G#|----------15------15---------15--|
D#|-------13-----------------13-----|
A#|---------------------------------|

F#|-12-------------10-13-12---------|
C#|----13--------13-----------13----|
G#|--------10--13----------------13-|
D#|---------------------------------|
A#|---------------------------------|


Riff "Y"
F#|-17--19~-------------20--17~-----|-20--22~-------------22--24~-----|
C#|---------------------------------|---------------------------------|
G#|---------------------------------|---------------------------------|
D#|---------------------------------|---------------------------------|
A#|---------------------------------|---------------------------------|


Riff "Z"
F#|---------------------------------|---------------------------------|
C#|---------------------------------|---------------------1-----------|
G#|---------------------------------|---------------------------------|
D#|---------------------------------|-1-------------------------------|
A#|-1-------------------0-----------|---------------------------------|


This part is NOT looped, but played at the end.
F#|-17-----15------17------15---| 
C#|----17------17------17-------| 
G#|-----------------------------| 
D#|-----------------------------|
A#|-----------------------------|

This part is played ONCE after THREE times of top riff.
F#|-20-----19------20------19---| 
C#|----20------20------20-------| 
G#|-----------------------------| 
D#|-----------------------------|
A#|-----------------------------|

That should be it! I'll continue to update after other contributions. Email 
updates to dlamprox@gmail.com
Добавлено: 29.07.2013
Другие материалы по этой песне:

Страница создана 29.07.2013
http://primanota.ru/trioscapes/curse-of-the-ninth-chords.htm
Привет, Гость.
Предлагаем пройти революционный курс по гитаре.
Подарок от PrimaNota.Ru, забирай!