PrimaNota.ru - самый крупный в мире бесплатный архив песенных текстов, аккордов, табулатур и нот


Trio - Kummer - аккорды и текст, видео

Регистрация Запомнить меня
Войти через:  Facebook Google Twitter Vk Yandex Mail.ru

Trio - Kummer - аккорды и текст, видео

Печатать
Просмотров: 108
Kummer
Trio
Trio - Kummer



(Glockenläuten)

E      E      E      E      E

E            E
Kummer oooh Kummer
                A
mein Herzl ist nicht mehr da
               E
ist nicht mehr da
E            E
Trauer oooh Trauer
                   A
wie schön wars im letzten Jahr
               C
jetzt ist sie nicht mehr da
          E
ich habe Kummer
E

E                E
Heartaches oooh heartaches
             A
mir tut das Herz so weh
           E
tut mir so weh
E            E
Tränen oooh Tränen
                   A
weil ich sie nicht wiederseh
              C
niemals mehr wiederseh
          E
habe ich Kummer
A                                                    G   E
  help me baby is it really so hard to understand
A                                      G  B
  help me baby is it really the Ende



Luzie-Solo (Spielzeuggitarre):

e|0---------------|--x-x-x-x-x-x-x-|x-x-x-x-x-x-x-x-|x-x-x-x-x-x-x-x-|x-x-x-x-x-x-x-x-|x-x-x-x-x-x-x-x-|
h|x-x-x-x-x-x-x-x-|x-2-0-2-0-2-0-x-|x-x-x-x-x-x-x-x-|x-x-x-x-x-x-x-x-|x-x-x-x-x-x-x-x-|x-x-x-x-x-x-x-x-|
G|x-x-x-x-x-x-x-x-|x-x-x-x-x-x-x-1-|x-x-3-----------|--------1-x-x-x-|x-x1x-x-x-x-x-x-|4-------1-x-x-x-|
D|x-x-x-x-x-x-x-x-|x-x-x-x-x-x-x-x-|2---x-x-x-x-x-x-|x-x-x-x-x-x4x-2-|4-x-2-----------|x-x-x-x-x-x4x-2-|
A|x-x-x-x-x-x-x-x-|x-x-x-x-x-x-x-x-|x-x-x-x-x-x-x-x-|x-x-x-x-x-x-x-x-|x-x-x-x-x-x-x-x-|x-x-x-x-x-x-x-x-|
E|x-x-x-x-x-x-x-x-|x-x-x-x-x-x-x-x-|x-x-x-x-x-x-x-x-|x-x-x-x-x-x-x-x-|x-x-x-x-x-x-x-x-|x-x-x-x-x-x-x-x-|
 |1---2---3---4---|1---2---3---4---|1---2---3---4---|1---2---3---4---|1---2---3---4---|1---2---3---4---|


e|x-x-x-x-x-x-x-x-|x-x-x-x-x-x-x-x-|x-10-----------7|-5~~3-----5-3--5|
h|x-x-x-x-0-------|----------------|3-x-x-x-x-x-x-x-|x-x-x-x-x-x-x-x-|
G|1-------x-x-x-x-|x-x-x-x-x-x-x-x-|x-x-x-x-x-x-x-x-|x-x-x-x-x-x-x-x-|
D|x-x-x-x-x-x-x-x-|x-x-x-x-x-x-x-x-|x-x-x-x-x-x-x-x-|x-x-x-x-x-x-x-x-|
A|x-x-x-x-x-x-x-x-|x-x-x-x-x-x-x-x-|x-x-x-x-x-x-x-x-|x-x-x-x-x-x-x-x-|
E|x-x-x-x-x-x-x-x-|x-x-x-x-x-x-x-x-|x-x-x-x-x-x-x-x-|x-x-x-x-x-x-x-x-|
 |1---2---3---4---|1---2---3---4---|1---2---3---4---|1---2---3---4---|

e|3---0---x-0-x-x-x-0-x-0-x-x-x-x-|x---x---x---x---x---x---x---x---|
h|x---x---1-x-3-1-3-x-1-x31---~~~~|x---x---x---x---x---x---x---x---|
G|x---x---x---x---x---x---x---x---|3-------------------------------|
D|x---x---x---x---x---x---x---x---|x---x---x---x---x---x---x---x---|
A|x---x---x---x---x---x---x---x---|x---x---x---x---x---x---x---x---|
E|x---x---x---x---x---x---x---x---|x---x---x---x---x---x---x---x---|
 |1-------2-------3-------4-------|1-------2-------3-------4-------| ........



Tabs:


E :

e|x-x-x-x-x-x-x-x-|x-x-x-x-x-x-x-x-|
h|x-x-x-x-x-x-x-x-|x-x-x-x-x-x-x-x-|
G|x-x-x-x-x-x-x-x-|x-x-x-x-x-x-x-x-|
D|x-x-x-x-2-------|x-x-x-x-2-------|
A|x-x-x-x-x-x-x-x-|x-x-x-x-x-x-x-x-|
E|0-------x-x-x-x-|0-------x-x-x-x-|


A :

e|x-x-x-x-x-x-x-x-|x-x-x-x-x-x-x-x-|
h|x-x-x-x-x-x-x-x-|x-x-x-x-x-x-x-x-|
G|x-x-x-x-2-------|x-x-x-x-2-------|
D|x-x-x-x-x-x-x-x-|x-x-x-x-x-x-x-x-|
A|0-------x-x-x-x-|0-------x-x-x-x-|
E|x-x-x-x-x-x-x-x-|x-x-x-x-x-x-x-x-|


C :

e|x-x-x-x-x-x-x-x-|8---------------|
h|x-x-x-x-x-x-x-x-|5---------------|
G|x-x-x-x-x-x-x-x-|5---------------|
D|x-x-x-x-5-------|5---------------|
A|3-------x-x-x-x-|x-x-x-x-x-x-x-x-|
E|x-x-x-x-x-x-x-x-|x-x-x-x-x-x-x-x-|


B :

e|x-x-x-x-x-x-x-x-|
h|x-x-x-x-x-x-x-x-|
G|x-x-x-x-x-x-x-x-|
D|x-x-x-x-x-x-x-x-|
A|2---------------|
E|x-x-x-x-x-x-x-x-|





!Die Akkorde/Tabs sind nur Vermutungen und selbst herausgehört, sie müssen nicht stimmen!


Chords/Tabs by
Berndend
Добавлено: 27.09.2014
Другие материалы по этой песне:
  • Аккорды и текст

Страница создана 12.03.2012
http://primanota.ru/trio/kummer-chords.htm
Привет, Гость.
Предлагаем пройти революционный курс по гитаре.
Подарок от PrimaNota.Ru, забирай!