PrimaNota.ru - самый крупный в мире бесплатный архив песенных текстов, аккордов, табулатур и нот


Trio - Herz Ist Trumpf - аккорды и текст, видео

Регистрация Запомнить меня
Войти через:  Facebook Google Twitter Vk Yandex Mail.ru

Trio - Herz Ist Trumpf - аккорды и текст, видео

Печатать
Просмотров: 210
Авторы музыки: Gert Krawinkel, Stephan Remmler
Авторы текста: Gert Krawinkel, Stephan Remmler
Herz Ist Trumpf
Trio
Trio - Herz ist Trumpf



Keyboard:

  A                A                E                A
e|x-x-x-x-x-x-x-x-|x-x-x-x-x-x-x-x-|x-x-x-x-x-x-x-x-|x-x-x-x-x-x-x-x-|
h|x-x-x-x-x-x-x-x-|x-x-x-x-x-x-x-x-|x-x-x-x-x-x-x-x-|x-x-x-x-x-x-x-x-|
G|x-x-x-x-x-x-x-x-|x-x-x-x-x-x-x-x-|x-x-x-x-x-x-x-x-|x-x-x-x-x-x-x-x-|
D|x-x-x-x-x-x-4-2-|x-x-x-x-x-x-4-2-|x-x-x-x-x-x-x-x-|x-x-x-x-x-x-4-2-|
A|0-0-2-4-0-0-x-x-|0-0-2-4-0-0-x-x-|x-x-x-x-x-x-4-2-|0-0-2-4-0-0-x-x-|
E|x-x-x-x-x-x-x-x-|x-x-x-x-x-x-x-x-|0-0-2-4-0-0-x-x-|x-x-x-x-x-x-x-x-|

  A                A                E                A
e|x-x-x-x-x-x-x-x-|x-x-x-x-x-x-x-x-|x-x-x-x-x-x-x-x-|x-x-x-x-x-x-x-x-|
h|x-x-x-x-x-x-x-x-|x-x-x-x-x-x-x-x-|x-x-x-x-x-x-x-x-|x-x-x-x-x-x-x-x-|
G|x-x-x-x-x-x-x-x-|x-x-x-x-x-x-x-x-|x-x-x-x-x-x-x-x-|x-x-x-x-x-x-x-x-|
D|x-x-x-x-x-x-4-2-|x-x-x-x-x-x-4-2-|x-x-x-x-x-x-x-x-|x-x-x-x-x-x-x-x-|
A|0-0-2-4-0-0-x-x-|0-0-2-4-0-0-x-x-|x-x-x-x-x-x-4-2-|0---0---2---3---|
E|x-x-x-x-x-x-x-x-|x-x-x-x-x-x-x-x-|0-0-2-4-0-0-x-x-|x-x-x-x-x-x-x-x-|

  C#                                D               
e|x-x-x-x-x-x-x-x-|x-x-x-x-x-x-x-x-|x-x-x-x-x-x-x-x-|x-x-x-x-x-x-x-x-|
h|x-x-x-x-x-x-x-x-|x-x-2-2-2-0-x-x-|0---x-x-x-x-x-x-|x-x-x-x-x-x-x-x-|
G|x-x-x-x-x-x-x-x-|x-x-x-x-x-x-2-1-|x-x-x-x-2---x-x-|x-2---2-2-1---x-|
D|x-x-x-x-x-x-x-x-|x-x-x-x-x-x-x-x-|x-x-x-x-x-x-x-x-|x-x-x-x-x-x-x-4-|
A|4---x-x-x-x-x-x-|x-x-x-x-x-x-x-x-|x-x-x-x-x-x-x-x-|x-x-x-x-x-x-x-x-|
E|x-x-x-x-x-x-x-x-|x-x-x-x-x-x-x-x-|x-x-x-x-x-x-x-x-|x-x-x-x-x-x-x-x-|

  E                                 A       E        A       E        A
e|x-x-x-x-x-x-x-x-|x-x-x-x-x-x-x-x-|x-x-x-x-x-x-x-x-|x-x-x-x-x-x-x-x-|x-x-x-x-x-x-x-x-|
h|x-x-x-x-x-x-x-x-|x-x-x-x-x-x-x-x-|x-x-x-x-x-x-x-x-|x-x-x-x-x-x-x-x-|x-x-x-x-x-x-x-x-|
G|4-------2-------|x-x-x-x-0---x-x-|x-x-x-x-0---x-x-|x-x-x-x-0---x-x-|x-x-x-x-x-x-x-x-|
D|x-x-x-x-x-x-x-x-|x-x-x-x-x-x-x-x-|x-x-x-x-x-x-x-x-|x-x-x-x-x-x-x-4-|x-x-x-x-x-x-x-x-|
A|x-x-x-x-x-x-x-x-|x-x-x-x-x-x-x-x-|0---x-x-x-x-x-x-|0---x-x-x-x-x-x-|0---x-x-x-x-x-x-|
E|x-x-x-x-x-x-x-x-|x-x-x-x-x-x-4---|x-x-x-x-x-x-4---|x-x-x-x-x-x-4---|x-x-x-x-x-x-x-x-|



     A 
Ich lese jeden Tag mein Horoskop in der Bild
     E         A
was dann... was dann...
     A
dann koch ich mir'n Ei weil man ja fit sein will
     E         A
was dann... was dann...
     A
dann setz ich mich ans Telefon und warte schon
     E         A
was dann... was dann...


              C#
Dann rufst du an  (Dann rufst du an...)
                     D
und ich fange an zu träumen
                      E
sowas darf man nicht versäumen
           A
Herz ist Trumpf
              C#
Dann rufst du an  (Dann rufst du an...)
                       D
und ich fange an zu schweben
                      E
ist das schön das zu erleben
E          A
Herz ist Trumpf
E          A
Herz ist Trumpf
E          A
Herz ist Trumpf


     A                
Ich schau mir gerne Schaufenster in Möbelläden an
     E         A
was dann... was dann...
     A
ich denk auch viel an Autos die ich mir nicht leisten kann
     E         A
was dann... was dann...
     A
dann geh ich schnell nach Haus denn jetzt fängt Fernsehen an
     E         A
was dann... was dann...
               C#
Du rufst nicht an
                       D
und ich bleib am Boden kleben
                             E
es hat sich ausgeschwebt mit Schweben
E          A
Herz ist Trumpf
E          A
Herz ist Trumpf
E          A
Herz ist Trumpf


     A 
Ich träume immerzu von einem Liebeslexikon
     E         A
was dann... was dann...
     A
es läuft nichts in der Richtung deshalb träum ich ja davon
     E         A
was dann... was dann...
     A
dann schenk ich manchmal nach damit ich schlafen kann
     E         A
was dann... was dann...


              C#
Dann rufst du an
                      D
und ich fange an zu träumen
                       E
sowas darf man nicht versäumen
           A
Herz ist Trumpf
              C#
Dann rufst du an
                     D
und ich fange an zu schweben
                       E
ist das schön das zu erleben
E          A
Herz ist Trumpf
E          A
Herz ist Trumpf
E          A
Herz ist Trumpf


A :

e|x-x-0-x-x-x-0-x-|
h|x-x-2-x-x-x-3-x-|
G|x-x-2-x-x-x-2-x-|
D|x-x-2-x-x-x-2-x-|
A|0-0-x-0-0-0-x-0-|
E|x-x-x-x-x-x-x-x-|


!Die Akkorde/Tabs sind nur Vermutungen und müssen nicht stimmen!

Chords/Tabs by
Berndend
Добавлено: 17.05.2015
Вам также может быть интересно:
Другие материалы по этой песне:
  • Аккорды и текст

Страница создана 04.03.2012
http://primanota.ru/trio/herz-ist-trumpf-chords.htm
Привет, Гость.
Предлагаем пройти революционный курс по гитаре.
Подарок от PrimaNota.Ru, забирай!