PrimaNota.ru - самый крупный в мире бесплатный архив песенных текстов, аккордов, табулатур и нот


Trinitron Meets The Mars People - Otter Pop Pop Pop - таба, видео

Регистрация Запомнить меня
Войти через:  Facebook Google Twitter Vk Yandex Mail.ru

Trinitron Meets The Mars People - Otter Pop Pop Pop - таба, видео

Печатать
Просмотров: 88
Trinitron Meets The Mars People - Otter Pop! Pop! Pop! (Tierra Luna)
Tabs by: Micheal Juelz
INTRO

Standard Tuning


x4

E|-------------------------|
B|-------------------------|
G|-----------------7p0-----|
D|-----------7p0-----------|
A|-----7p0-----------------|
E|-------------------------|


x2

E|-----------------------------|
B|-----------------------------|
G|-----------------7-----------|
D|-----------------------7-----|
A|-----5/7---------------------|
E|-----------------------------|

x2

E|-------------------------------------------|
B|-------------------------------------------|
G|-----------------7------------------12-----|
D|---------------------------7/10------------|
A|-----5/7-----------------------------------|
E|-------------------------------------------|


Repeat Once

Then(With or Without Delay):

E|-------------------------------------------------------------------|
B|-------------------------------------------------------------------|
G|-----------------12-----9------------------------------------------|
D|-----7-----7------------------7/9-----9-----9-----9-----7-----7----|
A|-------------------------------------------------------------------|
E|-------------------------------------------------------------------|

------------------------------------------|
------------------------------------------|
-----12-----9-----------------------------|
------------------7/9-----9-----9---------|
------------------------------------------|
------------------------------------------|


E|----------------------------------------------------------------------|
B|----------------------------------------------------------------------|
G|-----------------12-----9---------------------------------------------|
D|----------------------------------7/9-----9-----9-----9---------------|
A|-----7-----7------------------------------------------------7-----7---|
E|----------------------------------------------------------------------|

---------------------------------------|
---------------------------------------|
--12-----9-----------------------------|
-------------------7/9-----9-----9-----|
---------------------------------------|
---------------------------------------|


Then you repeat the whole thing once again before going to the next part.




Sorry, this is the first 2 minutes into the song and this is all i actually found from 
other tabs.
Добавлено: 03.11.2013
Другие материалы по этой песне:
  • Аккорды и текст

Страница создана 03.11.2013
http://primanota.ru/trinitron-meets-the-mars-people/otter-pop-pop-pop-chords.htm
Привет, Гость.
Предлагаем пройти революционный курс по гитаре.
Подарок от PrimaNota.Ru, забирай!