PrimaNota.ru - самый крупный в мире бесплатный архив песенных текстов, аккордов, табулатур и нот


Triggerfinger - Tuxedo - бас-таба, видео

Регистрация Запомнить меня
Войти через:  Facebook Google Twitter Vk Yandex Mail.ru

Triggerfinger - Tuxedo - бас-таба, видео

Печатать
Просмотров: 50
Уроки эстрадного вокала в Санкт-Петербурге
Авторы музыки: Ruben Block
Авторы текста: Ruben Block
TUXEDO

By: Triggerfinger

Look below for the order of play

Enjoy!

1. 
G|----------------------------------------------------------------|
D|7-7-7-7-7-7-7-7-7-7-7-7-7-7-7-7---------------------------------|   
A|--------------------------------6-6-6-6-6-6-6-6-6-6-6-6-6-6-6-6-|
E|----------------------------------------------------------------|

G|-----------------------------------------------------------|
D|----------------5-5-5-5-5-5-5-5-7-7-7-7-7-7-7-7-7-7-7-7-7-7|
A|5-5-5-5-5-5-5-5--------------------------------------------|
E|-----------------------------------------------------------|


2. 
G|---------------------------------------------------------------|
D|---------------------------------------------------------------|   
A|5-5-5-5-5-5-5-5-5-5-5-5-5-5-5-5-8-8-8-8-8-8-8-8-8-8-8-8-8-8-8-8|
E|---------------------------------------------------------------| 

G|---------------------------------------------------------------|
D|---------------------------------------------------------------|   
A|5-5-5-5-5-5-5-5-5-5-5-5-5-5-5-5-8-8-8-8-8-8-8-8-8-8-8-8-8-8-8-8|
E|---------------------------------------------------------------| 

3. 
G|---------------------------------------------------------------|
D|---------------------------------------------------------------|   
A|5-5-5-5-5-5-5-5-5-5-5-5-5-5-5-5-8-8-8-8-8-8-8-8-8-8-8-8-8-8-8-8|
E|---------------------------------------------------------------|

G|-----------------------------------------------------------------------|
D|-----------------------------------------------------------------------|   
A|5-5-5-5-5-5-5-5-5-5-5-5-5-5-5-5-8-8-8-8-8-8-8-8-11-11-11-11-11-11-11-11|
E|-----------------------------------------------------------------------|

4. 
G|--------|
D|--------| 
A|0-2-3-7-|
E|--------| Careful, different timing!

G|------------------------------------------------|
D|------------------------------------------------|   
A|6-6-6-6-6-6-6-6-6-6-6-6-6-6-6-6-5-5-5-5-5-5-5-5-|
E|------------------------------------------------|

G|------------------------------------------------|
D|------------------------------------------------|   
A|5-5-5-5-5-5-5-5-6-6-6-6-6-6-6-6-6-6-6-6-6-6-6-6-|
E|------------------------------------------------|

5.
G|--------|
D|--------|   
A|6-6-6-6-|
E|--------|

G|----------------------------------------------------------------|
D|----------------------------------------------------------------|   
A|5-5-5-5-5-5-5-5-5-5-5-5-5-5-5-5-6-6-6-6-6-6-6-6-6-6-6-6-6-6-6-6-|
E|----------------------------------------------------------------|

G|--------|
D|--------| 
A|0-2-3-7-|
E|--------|

G|--------|
D|--------|   
A|6-6-6-6-|
E|--------|

G|----------------------------------------------------------------|
D|----------------------------------------------------------------|   
A|5-5-5-5-5-5-5-5-5-5-5-5-5-5-5-5-6-6-6-6-6-6-6-6-6-6-6-6-6-6-6-6-|
E|----------------------------------------------------------------|

G|--------|
D|--------|   
A|0-------|
E|--------|
Play in the following order: 
1 (1x From beginning)
1 (2x From 0:13, when singing starts)
2 (1x From 0:35, All tuxedoed up...)
1 (2x From 0:46, Lot's of speed but no control...)
3 (1x From 1:07, All tuxedoed up...)
4 (2x From 1:18, Round and round and round...)
1 (2x From 1:40, All dolled up, let's hit the screen...)
3 (1x From 2:02, All tuxedoed up...)
4 (2x From 2:13, Round and round and round...)
1 (2x From 2:35, Guitar solo)
3 (1x From 2:57, All tuxedoed up...)
3:07-3:10 break (round after round after round...) then:
5 (1x From 3:10, We curse and we caress...)
Добавлено: 04.12.2015
Вам также может быть интересно:
Другие материалы по этой песне:
  • Аккорды и текст

Страница создана 04.12.2015
http://primanota.ru/triggerfinger/tuxedo-chords.htm
Привет, Гость.
Предлагаем пройти революционный курс по гитаре.
Подарок от PrimaNota.Ru, забирай!