PrimaNota.ru - самый крупный в мире бесплатный архив песенных текстов, аккордов, табулатур и нот


Triggerfinger - Only Girl In The World - таба, видео

Регистрация Запомнить меня
Войти через:  Facebook Google Twitter Vk Yandex Mail.ru

Triggerfinger - Only Girl In The World - таба, видео

Печатать
Просмотров: 97
Уроки эстрадного вокала в Санкт-Петербурге
This tab approaches Triggerfinger's version of Rihanna's "Only girl in the world":

The first guitar part:

E|--------------------------------|
B|--------------------------------|
G|-x-x-x-x-x-x-x-x-x-x-x-x-x-x-x-x|
D|-x-x-x-x-x-x-x-x-x-x-x-x-x-x-x-x|  x12
A|-x-x-x-x-x-x-x-x-x-x-x-x-x-x-x-x|
E|-x-x-x-x-x-x-x-x-x-x-x-x-x-x-x-x|

Second part: 
(Put your hand in E string major barre chord position)

E|--------------------------------|
B|-3---3-----------------3--------|
G|-4---4-----------------4--------|
D|-5---5-5-x-x-x---------5-x------|  
A|-------5-x-x-x-5-5|5-5|--x-5-x-5|
E|---------------3-3|3-3|----3-x-3|
                    ^
                Pull off shortly

E|--------------------------------|
B|--------------------------------|
G|---------------8-x--------------|
D|---------------9-x--------------|  
A|-x-7-x-9-x-9-x-9-x-9-x-9-x11-x-9|
E|-x-5-x-7-x-7-x-----7-x-7-x-9-x-7|

E|----------------------------------|
B|---------------3-----------3------|
G|---------------4-----------4------|
D|---------------5-x---------5---5-5|  
A|-x-7-x-5-x-5-x---x-5-x-3-x---x-5-5|
E|-x-5-x-3-x-3-x-----3-x-5-x---x-3-3|

E|--------------------------------|
B|--------------------------------|
G|--------------------------------|
D|-x-2-----2-4-5---5---5---5---5--|  
A|-x-2-----2-4-5---5---5---5---5--|
E|-x-0-----0-2-3---3---3---3---3--|

E|--------------------------------|
B|--------------------------------|
G|-x-x-x-x-x-x-x-x-x-x-x-x-x-x-x-x|
D|-x-x-x-x-x-x-x-x-x-x-x-x-x-x-x-x|  x3
A|-x-x-x-x-x-x-x-x-x-x-x-x-x-x-x-x|
E|-x-x-x-x-x-x-x-x-x-x-x-x-x-x-x-x|

2d guitar part:

E|--------------------------------|
B|--------------------------------|
G|--------------------------------|
D|--------------------------------|  
A|-5-x-5-x-5-x-5-x-5-x-5-x-5-x-7-x|
E|-3-x-3-x-3-x-3-x-3-x-3-x-3-x-5-x|

E|--------------------------------|
B|--------------------------------|
G|--------------------------------|
D|--------------------------------|  
A|-9-x-9-x-9-x-9-x-9-x-9-x-9-x12-x|
E|-7-x-7-x-7-x-7-x-7-x-7-x-7-x10-x|

E|--------------------------------|
B|--------------------------------|
G|--------------------------------|
D|--------------------------------|  
A|-5-x-5-x-5-x-5-x-5-x-5-x-5-5-x--|
E|-3-x-3-x-3-x-3-x-3-x-3-x-3-3-x--|

E|--------------------------------|
B|--------------------------------|
G|--------------------------------|
D|-2-----2-4-5---5---5---5---5----|  
A|-2-----2-4-5---5---5---5---5----|
E|-0-----0-2-3---3---3---3---3----|

E|--------------------------------|
B|--------------------------------|
G|--------------------------------|
D|--------------------------------|  
A|-5-5-5-5-5-5-5-5-5-5-5-5-5-7-7--|
E|-3-3-3-3-3-3-3-3-3-3-3-3-3-5-5--|

E|---------------------------------|
B|---------------------------------|
G|---------------------------------|
D|---------------------------------|  
A|-9-9-9-9-9-9-9-9-9-9-9-9-9-12-12-|
E|-7-7-7-7-7-7-7-7-7-7-7-7-7-10-10-|

E|--------------------------------|
B|--------------------------------|
G|--------------------------------|
D|--------------------------------|  
A|-7-5-5-5-5-5-5-5-5-5-5-5-5-5-3--|
E|-5-3-3-3-3-3-3-3-3-3-3-3-3-3-1--|

E|----------------------------------|
B|----------------------------------|
G|----------------------------------|
D|-2-2-2-2-2-2-4-5-5-5-5-5-5-5-5-5--|  
A|-2-2-2-2-2-2-4-5-5-5-5-5-5-5-5-5--|
E|-0-0-0-0-0-0-2-3-3-3-3-3-3-3-2-3--|

Bridge:

E|-1-1-1-1--------------------------|
B|-3-3-3-3--------------------------|
G|-2-2-2-2-2-2-2-2-4-4-4-4-4-4-4-4--|
D|---------2-2-2-2-4-4-4-4-4-4-4-4--|  x8
A|---------0-0-0-0-2-2-2-2-2-2-2-2--|
E|----------------------------------|


4th guitar part:

E------|--------------------------------|
B------|--------------------------------|
G------|--------------------------------|
D-4-4-4|-5-5-5-5-5-5-5-5-5-5-5-5-5-7-7--|  
A-4-4-4|-5-5-5-5-5-5-5-5-5-5-5-5-5-7-7--|
E-2-2-2|-3-3-3-3-3-3-3-3-3-3-3-3-3-5-5--|

E|---------------------------------|
B|---------------------------------|
G|---------------------------------|
D|-9-9-9-9-9-9-9-9-9-9-9-9-9-12-12-|  
A|-9-9-9-9-9-9-9-9-9-9-9-9-9-12-12-|
E|-7-7-7-7-7-7-7-7-7-7-7-7-7-10-10-|

E|--------------------------------|
B|--------------------------------|
G|--------------------------------|
D|-7-5-5-5-5-5-5-5-5-5-5-5-5-5-7-7|  
A|-7-5-5-5-5-5-5-5-5-5-5-5-5-5-7-7|
E|-5-3-3-3-3-3-3-3-3-3-3-3-3-3-5-5|

E|----------------------------------|
B|----------------------------------|
G|----------------------------------|
D|-2-2-2-2-2-2-4-5-5-5-5-5-5-5------|  
A|-2-2-2-2-2-2-4-5-5-5-5-5-5-5------|
E|-0-0-0-0-0-0-2-3-3-3-3-3-3-3/8\1--|

E|----------------------------------|
B|----------------------------------|
G|-7-7-7-7-6-6-6-6------------------|
D|-7-7-7-7-6-6-6-6-4-4-4-4-4-4-4-4--|  7x
A|-5-5-5-5-4-4-4-4-4-4-4-4-4-4-4-4--|
E|-----------------2-2-2-2-2-2-2-2--|

E|------------------------------------------|
B|------------------------------------------|
G|-7-7-7-7-6-6-6-6-11-11-11-11-11-11-11-11--|
D|-7-7-7-7-6-6-6-6-11-11-11-11-11-11-11-11--|
A|-5-5-5-5-4-4-4-4--9--9--9--9--9--9--9--9--|
E|------------------------------------------|

Добавлено: 21.10.2013
Другие материалы по этой песне:
  • Аккорды и текст

Страница создана 21.10.2013
http://primanota.ru/triggerfinger/only-girl-in-the-world-chords.htm
Привет, Гость.
Предлагаем пройти революционный курс по гитаре.
Подарок от PrimaNota.Ru, забирай!