PrimaNota.ru - самый крупный в мире бесплатный архив песенных текстов, аккордов, табулатур и нот


Triggerfinger - Au Suivant - бас-таба, видео

Регистрация Запомнить меня
Войти через:  Facebook Google Twitter Vk Yandex Mail.ru

Triggerfinger - Au Suivant - бас-таба, видео

Печатать
Просмотров: 93
Уроки эстрадного вокала в Санкт-Петербурге
Авторы музыки: Jacques Brel
Авторы текста: Jacques Brel
AU SUIVANT
artist: Jacques Brel 
covered by: Triggerfinger

this is the first tablature i've ever made so i doubt everything will be right if 
anything is wrong please write it in the comments, thank you!


intro

G|----------------|                        
D|----------------| 5 x 
A|6-6-6-6-6-6-7-7-|
E|----------------|

G|------------------|                        
D|------------------| 
A|6-6-6-6-6-6-7-7-6x|
E|------------------|


verse                                                                           

G|------------------------------------------------|
D|------------------------------------------------|
A|------------------------------------------------|
E|5-5-8-8-7-7-6-6-5-5-8-8-7-7-6-6-5-5-8-8-7-7-6-7-|

G|-------------------------------|
D|-------------------------------| 3 x
A|6-6-7-7-8-8-9-9-6-6-7-7-8-8-9-9|
E|-------------------------------|

G|------------------------------------------------|
D|------------------------------------------------|
A|------------------------------------------------|
E|5-5-8-8-7-7-6-6-5-5-8-8-7-7-6-6-5-5-8-8-7-7-6-6-|
chorus
G|------------------------------------------------|
D|------------------------------------------------|
A|4-4-4-4-4-4-4-4-2-2-2-2-2-2-2-2-1-1-1-1s7-7-7-7-|
E|------------------------------------------------|

G|--------|
D|--------| 3x
A|6-------|
E|--------|
then play :
VERSE-CHORUS-VERSE-CHORUS-VERSE
Then:
CHORUS A
G|------------------------------------------------|
D|------------------------------------------------|
A|4-4-4-4-4-4-4-4-2-2-2-2-2-2-2-2-1-1-1-1s7-7-7-7-|
E|------------------------------------------------|

G|----------------|
D|----------------| 
A|6-6-6-6-6-6-6-6-|
E|----------------|

CHORUS B

G|------------------------------------------------|
D|------------------------------------------------|
A|4-4-4-4-4-4-4-4-2-2-2-2-2-2-2-2-1-1-1-1-4-4-7-7-|
E|------------------------------------------------|

G|----------------|
D|----------------| 
A|6-6-6-6-6-6-6-6-|
E|----------------|
CHORUS B(variation)

G|------------------------------------------------|
D|------------------------------------------------|
A|4-4-4-4-4-4-4-4-2-2-2-2-2-2-2-2-1-1-1-1-4-4-7-7-|
E|------------------------------------------------|

G|------------------|
D|----6-6-7-6-5-4---| 
A|6-6---------------|
E|------------------|
CHORUS B(variation 2)
G|------------------------------------------------|
D|------------------------------------------------|
A|4-4-4-4-4-4-4-4-2-2-2-2-2-2-2-2-1-1-1-1-4-4-7-7-|
E|------------------------------------------------|

G|---------------------|
D|---------------------| 
A|6-6-10-10-11-11-10-9-|
E|---------------------|
Then play:
CHORUS B –CHORUS A –CHORUS A-CHORUS B
After that play:
G|------------------------------------------------|
D|------------------------------------------------|
A|4-4-4-4-4-4-4-4-2-2-2-2-2-2-2-2-1-1-1-1-1-1-4-5-|
E|------------------------------------------------|

G|----------------|
D|----------------| 
A|6-6-6-6-6-6-6-6-|
E|----------------|




G|------------------------------------------------|
D|------------------------------------------------|
A|4-4-4-4-4-4-4-4-2-2-2-2-2-2-2-2-1-1-1-1-4-4-7-7-|
E|------------------------------------------------|

G|---------------------|
D|---------------------| 
A|6-6-10-10-11-11-10-9-|
E|---------------------|

G|------------------------------------------------|
D|------------------------------------------------|
A|4-4-4-4-4-4-4-4-2-2-2-2-2-2-2-2-1-1-1-1s7-7-7-7-|
E|------------------------------------------------|

G|----------------|
D|----------------| 
A|6-6-6-6-6-6-6-6-|
E|----------------|
And the end:
G|------------------------------------------------|
D|------------------------------------------------|
A|4-4-4-4-4-4-4-4-2-2-2-2-2-2-2-2-1-1-1-1s7-7-7-7-|
E|------------------------------------------------|

G|----------------|
D|----------------| 
A|6-------6-6-----|
E|----------------|

G|--------|
D|--------| 2x
A|6-------|
E|--------|

hope you enjoy playing this awesome song
Добавлено: 04.09.2013
Другие материалы по этой песне:
  • Аккорды и текст

Страница создана 04.09.2013
http://primanota.ru/triggerfinger/au-suivant-chords.htm
Привет, Гость.
Предлагаем пройти революционный курс по гитаре.
Подарок от PrimaNota.Ru, забирай!