PrimaNota.ru - самый крупный в мире бесплатный архив песенных текстов, аккордов, табулатур и нот


Trigger Hippy - Rise Up Singing - бас-таба, видео

Регистрация Запомнить меня
Войти через:  Facebook Google Twitter Vk Yandex Mail.ru

Trigger Hippy - Rise Up Singing - бас-таба, видео

Печатать
Просмотров: 85
-------------------------------------------------------------------------------
                             Rise up Singing - Trigger Hippy
-------------------------------------------------------------------------------
Tabbed by: Dave
E-mail: 

Tuning: Standard 4 string.
Intro

G|----------|-------------------------|------------|------------|------------|--------------|
D|-10-8\10--|-10-10-10-10-10-10-10-10-|---7--------|----7-------|---7--------|----7---------|
A|----------|-------------------------|------10----|-------10---|------10----|-------10-----|
E|----------|-------------------------|-8-------8--|-88-------8-|-8-------8--|-88-------8---|

Verse 1 (2 & 3)

G|----------|-----------|----------|-----------|------------|--------|---------|-------------|
D|---7------|----7------|---7------|----7------|------------|-----5--|---7-----|----7--------|
A|-----10---|------10---|-----10---|------10---|--8---88-7--|-5--5-5-|----10---|------10-----|
E|-8------8-|-88------8-|-8------8-|-88------8-|------------|--------|-8-----8-|-88------8---|

G|----------|-----------|----------|-----------|------------|--------|----------|------------|
D|---7------|----7------|---7------|----7------|------------|-----5--|---7------|----7-------|
A|-----10---|------10---|-----10---|------10---|--8---88-7--|-5--5-5-|-----10---|------10----|
E|-8------8-|-88------8-|-8------8-|-88------8-|------------|--------|-8------8-|-88------8--|

Chorus 1

G|----------|-----------|------------|----------|----------|-----------|-----------|-----------|
D|----------|-------7-8--|-10-8-7----|----------|----------|-------7-8-|-10-8-7----|-----------|
A|--------6-|-8--10-----|---------10-|-8-7------|--------6-|-8--10-----|--------10-|-8-7-------|
E|-6--8-9---|-----------|------------|-----10-8-|-6--8-9---|-----------|-----------|-----10-8--|

Verse 2

Chorus 2

G|----------|-----------|------------|----------|----------|-----------|-----------|-----------|
D|----------|-------7-8--|-10-8-7----|----------|----------|-------7-8-|-10-8-7----|-----------|
A|--------6-|-8--10-----|---------10-|-8-7------|--------6-|-8--10-----|--------10-|-8-7-------|
E|-6--8-9---|-----------|------------|-----10-8-|-6--8-9---|-----------|-----------|-----10-8--|



G|-----------|-----------|-----------|-----------|---------|-------------------------|
D|-----------|-----------|-----------|-----------|---------|-10-10-10-10-10-10-10-10-|
A|-----------|-------8---|-----8-----|-----5-----|---------|-------------------------|
E|-8-----8---|-8------8--|-----------|-----------|----8----|-------------------------|

Verse 3

Chorus 3

G|----------|-----------|------------|----------|----------|-----------|-----------|-----------|
D|----------|-------7-8--|-10-8-7----|----------|----------|-------7-8-|-10-8-7----|-----------|
A|--------6-|-8--10-----|---------10-|-8-7------|--------6-|-8--10-----|--------10-|-8-7-------|
E|-6--8-9---|-----------|------------|-----10-8-|-6--8-9---|-----------|-----------|-----10-8--|


G|----------|-----------|------------|----------|----------|-----------|-----------|-----------|
D|----------|-------7-8--|-10-8-7----|----------|----------|-------7-8-|-10-8-7----|-----------|
A|--------6-|-8--10-----|---------10-|-8-7------|--------6-|-8--10-----|--------10-|-8-7-------|
E|-6--8-9---|-----------|------------|-----10-8-|-6--8-9---|-----------|-----------|-----10-8--|



G|-----------|-----------|-----------|-----------|---------|-----------------------|
D|-----------|-----------|-----------|-----------|---------|--------8----10--------|
A|-----------|-------8---|-----8-----|-----5-----|---------|----10-----------------|
E|-8-----8---|-8------8--|-----------|-----------|----8----|-8---------------------|

This TAB is based on their studio version.  The baseline shown may not be the exact copy of what 
Trigger Hippy's bassist Nick Govrik plays, but it may help you to get started.




| /  slide up
| \  slide down
| h  hammer-on
| p  pull-off
| ~  vibrato
| +  harmonic
| x  Mute note
===============================================================================
Добавлено: 21.12.2015
Другие материалы по этой песне:
  • Аккорды и текст

Страница создана 21.12.2015
http://primanota.ru/trigger-hippy/rise-up-singing-chords.htm
Привет, Гость.
Предлагаем пройти революционный курс по гитаре.
Подарок от PrimaNota.Ru, забирай!