PrimaNota.ru - самый крупный в мире бесплатный архив песенных текстов, аккордов, табулатур и нот


Tricky - 1 Da Woman - таба, видео

Регистрация Запомнить меня
Войти через:  Facebook Google Twitter Vk Yandex Mail.ru

Tricky - 1 Da Woman - таба, видео

Печатать
Просмотров: 160
Авторы музыки: Tricky, Charles Fox, John Frusciante
Авторы текста: Norman Gimbel
I found chords and tabs all over the internets, but none of them used a capo, and for 
me, it's easier this way. This is only one of the guitar parts in the song, since there 
are multiple parts. However, the intro and the chorus sound amazing.
And for reference:
http://www.youtube.com/watch?v=RsZsHRhtiio
^The song.
Capo on fourth. Standard tuning. All chords relative to capo.

Intro:
E|--6---6---6---6-6---6-6---6--|
B|--6---6---6---6-6---6-6---6--|
G|--8---8---8---8-7---7-7---7--|
D|--8---8---8---8-8---8-8---8--|
A|--8---8---8---8-8---8-8---8--|
E|-----------------------------|

Play this with each line:
E|--------------|
B|--------------|
G|--------------|
D|--------------|
A|--4/6----4/6--|
E|--------------|

She's so malicious and so delicious
Superstitious super suspicious
Wonder woman under woman
Only woman lonely woman
You just rewind and we'll just be fine
We'll just be fine you just be mine
You just rewind and we'll just be fine
You just be mine you just be mine

Chorus:
Em  A       D    G
You show me everything
Em  A       D    G
You fill me everywhere
Em     A           D      G
You're preaching that you care
Em     F#
Do you care?

E|--6---6---6---6-6---6-6---6--|
B|--6---6---6---6-6---6-6---6--|
G|--8---8---8---8-7---7-7---7--|
D|--8---8---8---8-8---8-8---8--|
A|--8---8---8---8-8---8-8---8--|
E|-----------------------------|

Play this with each line:
E|--------------|
B|--------------|
G|--------------|
D|--------------|
A|--6/8----6/8--|
E|--------------|

I'll fix to fall through time
I knew your weren't mine
I'll shine right through the sky
Floating I try and try
Captured by what I lose
That' when I forced the flew
Being will never be
Have her remembering me

E|--------------|
B|--------------|
G|--------------|
D|--------------|
A|--4/6----4/6--|
E|--------------|

Tuck your hair behind you ears
Your tears and your silly fears
I'll be your teddy bear
You chose the clothes I wear
For you I suffer much pain
Sharp glass migraine
For you I'd lose my focus
For you I'd swim a swarm of locusts

Chorus:
Em  A       D    G
You show me everything
Em  A       D    G
You fill me everywhere
Em     A           D      G
You're preaching that you care
Em     F#
Do you care?

E|--6---6---6---6-6---6-6---6--|
B|--6---6---6---6-6---6-6---6--|
G|--8---8---8---8-7---7-7---7--|
D|--8---8---8---8-8---8-8---8--|
A|--8---8---8---8-8---8-8---8--|
E|-----------------------------|

Fill:
E|----------------------------|
B|------13----13----13----13--|
G|------13----13----13----13--|
D|----------------------------|
A|----------------------------|
E|----------------------------|

Play this with each line:
E|--------------|
B|--------------|
G|--------------|
D|--------------|
A|--6/8----6/8--|
E|--------------|

Everytime I am you
I feel forever new
Posing along the beat
You feel like I me
If I were myself right now
I wish I never found
I'm holding on so tight
Feeling like not feeling right

Chorus 2:
F#m B       E    A
You show me everything
F#m B       E    A
You fill me everywhere
F#m    B           E      A
You're preaching that you care
F#m    G#
Do you care?

Play this with each line:
E|--------------|
B|--------------|
G|--------------|
D|--------------|
A|--6/8----6/8--|
E|--------------|

Here I remain
She don't know my name
Would she love me
If I had real fame
I feel bad pain
Here come that rain
I don't complain
She's too complex
Tell me your name
Is that your real sex

Outro:
E|-------------------------------------|
B|-------------8h9----12--12--12--13---|
G|--10--8--10---------12--12--12--13---|
D|-------------------------------------|
A|-------------------------------------|
E|-------------------------------------|

This tab isn't perfect, since this is the first tab I've ever done. However, it's pretty 
easy to understand after you listen to the song. I hope you liked it, and... enjoy!
Добавлено: 10.07.2013
Другие материалы по этой песне:

Страница создана 08.04.2012
http://primanota.ru/tricky/1-da-woman-chords.htm
Привет, Гость.
Предлагаем пройти революционный курс по гитаре.
Подарок от PrimaNota.Ru, забирай!