PrimaNota.ru - самый крупный в мире бесплатный архив песенных текстов, аккордов, табулатур и нот


Tribal Seeds - Night Day - таба, видео

Регистрация Запомнить меня
Войти через:  Facebook Google Twitter Vk Yandex Mail.ru

Tribal Seeds - Night Day - таба, видео

Печатать
Просмотров: 61
Night & Day
Tribal Seeds
2012

Tuning: Standard

Intro
|---------------------------0h2p0-0h2p0--5--5--4--2h4p2---------------------------|
|-------------------------------------------------------2----0----0--0h2--0---0---|
|--2h4p2-2h4p2-2h4p2-2h4p2--------------------------------------2---------------2-|
|---------------------------------------------------------------------------------|
|---------------------------------------------------------------------------------|
|---------------------------------------------------------------------------------|

Throughough most of  the song 
|--12--12--12--12---5---5---5---5---|
|--14--14--14--14---7---7---7---7---|
|--14--14--14--14---6---6---6---6---|
|--14--14--14--14---7---7---7---7---|
|--12--12--12--12---5---5---5---5---|
|-----------------------------------|

Also sounds fine to play this (better for an acoustic guitar)
|--5---5---5---5---5---5---5---5---|
|--5---5---5---5---7---7---7---7---|
|--6---6---6---6---6---6---6---6---|
|--7---7---7---7---7---7---7---7---|
|--7---7---7---7---5---5---5---5---|
|--5---5---5---5-------------------|





I'll reacy you one way or another...
|--------14----12-----------------------------------|
|-12h14-----14----14--12--10-12-10-8---8------------|
|------------------------------------9---9-7--------|
|---------------------------------------------7-7h9-|
|---------------------------------------------------|
|---------------------------------------------------|

Impossible... (play each chord 4 times)
|--5---5---5---7--|
|--7---7---5---9--|
|--7---6---6---9--|
|--7---7---7---9--|
|--5---5---7---7--|
|----------5------|


|-----14--12----------------------------------------12-|
|--14---------12-12h14----14h15p14---12----------12----|
|---------------------------------------14-12----------|
|----------------------------------------------14------|
|------------------------------------------------------|
|------------------------------------------------------|

Solo
|---------------------------------------------------------|
|---------------------------------------------------------|
|--2h4p2-2h4p2-2h4p2-2h4p2-2h4p2-2h4p2--6--6-4-2h4p2------|
|---------------------------------------------------4-----|
|---------------------------------------------------------|
|---------------------------------------------------------|

|--------------------------5----------------------------------|
|-101010-10-10--9--5h7p5---- 7p5--------2---------------------|
|-------------------------------6-4-2-4--4-2-------2-2---2----|
|--------------------------------------------4----4----4------|
|-------------------------------------------------------------|
|-------------------------------------------------------------|

|-------2-------2---------5---7b--5------------------------|
|---------------------5h7--7--------7--5-------------------|
|-2h4-4---2h4-4---------------------------4h6p4------------|
|----------------------------------------------------------|
|----------------------------------------------------------|
|----------------------------------------------------------|

|--14--12------------------------------------------------------|
|--------14p12---14-12-10h12p10--14-12-10----------------------|
|-----------------------------------------11--9h11p9----9------|
|----------------------------------------------------11---11---|
|------------------------------------------------------------9-|
|--------------------------------------------------------------|

|----------------------------------12--------12-14-12----------|
|---------10-12---10-12-14---12-14-----12-14----------14-12-10-|
|-9h11-11------------------------------------------------------|
|--------------------------------------------------------------|
|--------------------------------------------------------------|
|--------------------------------------------------------------|

Impossible... (3:11)
|--------------------12-------------------------|
|-12b--10--10h12--------12-10h12p10-------------|
|-----------------------------------11--9-9h11--|
|-----------------------------------------------|
|-----------------------------------------------|
|-----------------------------------------------|

|-14-12------------------------------|
|-------14b--12-10-12b-10-9-10-------|
|------------------------------------|
|------------------------------------|
|------------------------------------|
|------------------------------------|

Let me know if you have any corrections or if I am missing anything.
Добавлено: 14.08.2013
Другие материалы по этой песне:
  • Аккорды и текст

Страница создана 17.07.2013
http://primanota.ru/tribal-seeds/night-day-chords.htm
Привет, Гость.
Предлагаем пройти революционный курс по гитаре.
Подарок от PrimaNota.Ru, забирай!