PrimaNota.ru - самый крупный в мире бесплатный архив песенных текстов, аккордов, табулатур и нот


Tribal Seeds - Mad Man - аккорды и текст, видео

Регистрация Запомнить меня
Войти через:  Facebook Google Twitter Vk Yandex Mail.ru

Tribal Seeds - Mad Man - аккорды и текст, видео

Печатать
Просмотров: 79
Mad Man
Tribal Seeds
-------------------------------------------------------------------------------
                             MAD MAN - Tribal Seeds
-------------------------------------------------------------------------------
Tabbed by: JahLive2ride
E-mail: jarmas@calpoly.edu

Tuning: Standard
   
   Bm   G   A    Em
e|-7----3---5-----7----------------------------------------------------------|
B|-7----3---5-----8----------------------------------------------------------|
G|-7----4---6-----9----------------------------------------------------------|
D|-9----5---7-----9----------------------------------------------------------|
A|-9----5---7-----7----------------------------------------------------------|
E|-7----3---5-----7----------------------------------------------------------|

Bm                               G   A   Bm
These are the words of a madman, I love you.
Bm                               G   A   Bm
These are the words of a madman, I love you.
Bm
Those are his words in my opinion,
         G    A       Bm
'Cause what would you do for love? For true love?
G       A         Bm
Time it test your innocence!

Em Bm  A                  Bm
       Hypnotized by your lust.
Em Bm          A                  Bm
       And you betrayed my trust.

Bm
You drive I man insane!
                 G  A          
You drive I man crazy!
Bm
You drive I man insane!
                 G  A
You drive I man crazy!


Whoa I! Whoa! whoa!

Just is I insanity,
I is who I is for a reason.
Yet you stood there and laughed at me,
You replace your love with treason.
I heart, I soul, has no room for pride at all.
I heart, I soul, has no pride at all.

Said I was hypnotized by your lust, girl.
And you betrayed my trust.

You drive I man insane!
You drive I man crazy!
You drive I man insane!
You drive I man crazy!

(..)

These are the words of I man, I love you.
These are the words of I man, I hate you.
You wear a mental crown,
You treat love like a game.
You run I to the ground,
You drive I man insane!

So crazy! So crazy!
Добавлено: 02.07.2015
Другие материалы по этой песне:
  • Аккорды и текст

Страница создана 02.07.2015
http://primanota.ru/tribal-seeds/mad-man-chords.htm
Привет, Гость.
Предлагаем пройти революционный курс по гитаре.
Подарок от PrimaNota.Ru, забирай!