PrimaNota.ru - самый крупный в мире бесплатный архив песенных текстов, аккордов, табулатур и нот


Tribal Seeds - Island Girl - таба, бас-таба, видео

Регистрация Запомнить меня
Войти через:  Facebook Google Twitter Vk Yandex Mail.ru

Tribal Seeds - Island Girl - таба, бас-таба, видео

Печатать
Просмотров: 116
Island Girl
Tribal Seeds
Tribal Seeds

Intro

E|--1-s-12-----1-s-12-------1-s-12-----3-s-15-|
B|--------------------------------------------|
G|--------------------------------------------|
D|--------------------------------------------|
A|--------------------------------------------|
E|--------------------------------------------|

Chorus

E|--10-10--8--8---7--8--s-10--5---------------|
B|--12-12--10-10--8--10-s-12--5---------------|
G|--------------------------------------------|
D|--------------------------------------------|
A|--------------------------------------------|
E|--------------------------------------------|

E|--8--s-10--8--7--8---15-15-15-15-------------|
B|--10-s-12--10-8--10--17-17-17-17-------------|
G|---------------------------------------------|
D|---------------------------------------------|
A|---------------------------------------------|
E|---------------------------------------------|

Chords
   A Minor           G Major
E|--5-----12----------3------10--------------------------|
B|--5-----13----------3------12--------------------------|
G|--5--or-14----------4--or--12--------------------------|
D|--7-----14----------5------12--------------------------|
A|--7-----12----------5------10--------------------------|
E|--5-----------------3----------------------------------|

Solo
E|--17---12---12-12-12-13-15-12---12-12-12-h-13----12-12-12-12-----------------|     X2
B|----------------------------------------------15-------------12-13-15-13-12--|
G|-----------------------------------------------------------------------------|
D|-----------------------------------------------------------------------------|
A|-----------------------------------------------------------------------------|
E|-----------------------------------------------------------------------------|

E|--------------------------------------------------Tremelo pick----17~~20~19~17~X2-20~19~|
B|--13-12-10-X4-15-13-12-X4-17-15-13-X4-19-17-15-X4-----------------14~~17~16~14~---17~16~|
G|----------------------------------------------------------------------------------------|
D|----------------------------------------------------------------------------------------|
A|----------------------------------------------------------------------------------------|
E|----------------------------------------------------------------------------------------|

Thats pretty much it the order is easy to figure out

Добавлено: 17.06.2012
Другие материалы по этой песне:
  • Аккорды и текст

Страница создана 17.06.2012
http://primanota.ru/tribal-seeds/island-girl-chords.htm
Привет, Гость.
Предлагаем пройти революционный курс по гитаре.
Подарок от PrimaNota.Ru, забирай!