PrimaNota.ru - самый крупный в мире бесплатный архив песенных текстов, аккордов, табулатур и нот


Tribal Seeds - Ill Return Again - таба, видео

Регистрация Запомнить меня
Войти через:  Facebook Google Twitter Vk Yandex Mail.ru

Tribal Seeds - Ill Return Again - таба, видео

Печатать
Просмотров: 93
Уроки эстрадного вокала в Санкт-Петербурге
I'll Return Again
Tribal Seeds
Soundwaves - EP

Intro (not really guitar but you can do something like this)
|--11-11--11--11--6--6--6--6--8--8--8--8--6--6--6--6--|
|-----------------------------------------------------|
|-----------------------------------------------------|
|-----------------------------------------------------|
|-----------------------------------------------------|
|-----------------------------------------------------|
|
|---11-11-11-11----------------8--8--8--8-------------|
|--8--8--8--8-----------------4--4--4--4--------------|
|-----------------------------------------------------| this part is also in the chorus
|-----------------------------------------------------|
|-----------------------------------------------------|
|-----------------------------------------------------|
repeats four times


This is quietly thrown in there on the third and fourth time
|-----------------------------------------|
|-----------------------------------------|
|--8--8p7---------------------------------|
|---------10-8------8--8-----8--10-8------|
|------------------------10----------10-8-|
|-----------------------------------------|




When you call me..
|--6---6---6---6---8---8---6---6--|
|--8---8---6---6---8---8---6---6--|
|--8---8---7---7---8---8---7---7--|
|--8---8---8---8---10--10--8---8--|
|--6---6---8---8---10--10--8---8--|
|----------6---6---8---8---6---6--|
(This is also played throughout most of the song and continues through the verse)

|-------------------------------------|
|-------------------------------------|
|--8-8--8-----------------------------|
|----------8--8----10-10-10--10--8--8-|
|-------------------------------------|
|-------------------------------------|
(quiet during the verse)


What more can I do girl...
|--4---4---4---4---6---6---6---6--|
|--4---4---4---4---6---6---6---6--|
|--5---5---5---5---7---7---7---7--|
|--6---6---6---6---8---8---8---8--|
|--6---6---6---6---8---8---8---8--|
|--4---4---4---4---6---6---6---6--|
repeats twice when used

Interlude
|-------------------------------6------8----|
|-------4--------6--------4-----6------8----|
|-----5--------7--------5-------7------8----|
|--6---------8--------6---------8-----10----|
|--6---------8--------6---------8-----10----|
|-------------------------------6------8----|

guitar before outro
|----------------------------16-1515-----|
|--11--11-1111-----11--11----16-1515-----|
|--10--10-1010-----10--10----------------|
|----------------------------------------|
|----------------------------------------|
|----------------------------------------|
repeats four times

This is quietly thrown in there on the third and fourth time
|-----------------------------------------|
|-----------------------------------------|
|--8--8p7---------------------------------|
|---------10-8------8--8-----8--10-8------|
|------------------------10----------10-8-|
|-----------------------------------------|
Добавлено: 09.11.2013
Другие материалы по этой песне:
  • Аккорды и текст

Страница создана 09.11.2013
http://primanota.ru/tribal-seeds/ill-return-again-chords.htm
Привет, Гость.
Предлагаем пройти революционный курс по гитаре.
Подарок от PrimaNota.Ru, забирай!