PrimaNota.ru - самый крупный в мире бесплатный архив песенных текстов, аккордов, табулатур и нот


Tribal Ink - Living On A Lie - таба, видео

Регистрация Запомнить меня
Войти через:  Facebook Google Twitter Vk Yandex Mail.ru

Tribal Ink - Living On A Lie - таба, видео

Печатать
Просмотров: 295
I'm not sure, but i think that it's right!
Please rate this tab!!!
It's real cool song!!!
Enjoy
---------------------------------------------------------------------------- 
Thanks for Wassup I tabbed out main arpeggios!

Intro
1 guitar  Riff A
E--------------------------------------------------------------------------|
B----------------------------------------------------0---------------------|
G-----------0------------------------0-----------------0-----------------0-|
D--------4-----4------------------4-----------4-----------4----4-------4---|
A------2----------2-----2-----2-----------2-----------------2--------2-----|
E---0----------------0-----3-----------0--------------------------3--------|

2 guitar
 Riff B
0:00-0:03
|-----|
|     |
E------|-------------------------------|
B------|-------------------------------|
G------|--------9/7-----------9/7------|
D-5b---|--7/9-----------7/9------------|
A------|-------------------------------|
E------|-------------------------------|

Verse Riff C
E--------------------------------------------------------------------------|
B-------------------------------------------------0------------------------|
G------------0--------------------------0-----------0------------------0---|
D--------4------4--------------------4--------4--------4----4-------4------|
A------2-----------2------2-------2---------2-------------2------2---------|
E---0------------------0------3-----------0--------------------3-----------|

E--------------------------------------------------------------------------|
B--------------------------------------------------------0-----------------|
G-----------0---------------------------0------------------0---------------|
D--------4-----4---------------------4------------4-----------4----2-------|
A------2-----------2------2-------2------------2-----------------2---------|
E---0------------------0------3--------------0-----------------------------|

Chorus
 Riff D
E-----------------------------------------------------------------------------|
B-----------------------------------------------------------------------------|
G-----------------------------------------------------------------------------|
D-x-x-2-x--2-x--2-x----7-x---5--x-----2-2--2-x--2-x-2-x--7-x--5--x------------|
A-x-x-2-x--2-x--2-x----7-x---5--x-----2-2--2-x--2-x-2-x--7-x--5--x------------|
E-x-x-0-x--0-x--0-x ---5-x---3--x-----0-0--0-x--0-x-0-x--5-x--3--x------------|

Post-Chorus
Riff E
E--------------------------------------------------------------------------------------|
B--------------------------------------------------------------------------------------|
G--------------------------------------------------------------------------------------|
D--2-2-2-2-2-2-2-2---5-5-5-5-5-5-5-5---7-7-7-7-7-7-7-7--10-10-10-10-10-10-10-10--------|
A--2-2-2-2-2-2-2-2---5-5-5-5-5-5-5-5---7-7-7-7-7-7-7-7--10-10-10-10-10-10-10-10--------|
E--0-0-0-0-0-0-0-0---3-3-3-3-3-3-3-3---5-5-5-5-5-5-5-5--8--8--8--8--8--8--8--8---------|
P.M. ..............................................................................

Riff F
E------------------------/--------|
B------------------------/--------|
G------------------------/--------|
D--2-2---2-2---2-2---2-2-/--------|
A--2-2---2-2---2-2---2-2-/--------|
E--0-0---0-0---0-0---0-0-/--------|
Добавлено: 19.04.2012
Вам также может быть интересно:
Другие материалы по этой песне:
  • Аккорды и текст

Страница создана 19.04.2012
http://primanota.ru/tribal-ink/living-on-a-lie-chords.htm
Привет, Гость.
Предлагаем пройти революционный курс по гитаре.
Подарок от PrimaNota.Ru, забирай!