PrimaNota.ru - самый крупный в мире бесплатный архив песенных текстов, аккордов, табулатур и нот


Trey Songz - Already Taken - аккорды и текст, таба, видео

Регистрация Запомнить меня
Войти через:  Facebook Google Twitter Vk Yandex Mail.ru

Trey Songz - Already Taken - аккорды и текст, таба, видео

Печатать
Просмотров: 179
Already Taken
Trey Songz
e|-------1---------1---------1--------1-------1-------1-------1-------1------|
B|----------------------------------1---1---1---1---1---1---1---1---1---1----|
G|--0-3-----3-0-3-----3-0-3-----3-2-------3-------3-------3-------2----------|
D|---------------------------------------------------------------------------|
A|---------------------------------------------------------------------------|
E|---------------------------------------------------------------------------|

Extra for the ending:
e|-----------------------------------------------------------------------------------------------|
B|---------------------------1/3----1/3----1/3-------------------------------1/3----1/3----4/6-3~|
G|3/53----3/53----3/53-------------------------3/53----3/53----3/53------------------------------|
D|-----------------------------------------------------------------------------------------------|
A|-----------------------------------------------------------------------------------------------|
E|-----------------------------------------------------------------------------------------------|
Добавлено: 06.05.2016
Другие материалы по этой песне:
  • Аккорды и текст

Страница создана 10.04.2012
http://primanota.ru/trey-songz/already-taken-chords.htm
Привет, Гость.
Предлагаем пройти революционный курс по гитаре.
Подарок от PrimaNota.Ru, забирай!