PrimaNota.ru - самый крупный в мире бесплатный архив песенных текстов, аккордов, табулатур и нот


Trevor Jones - The Last Of The Mohicans (feat. Randy Edelman) - таба, видео

Регистрация Запомнить меня
Войти через:  Facebook Google Twitter Vk Yandex Mail.ru

Trevor Jones - The Last Of The Mohicans (feat. Randy Edelman) - таба, видео

Печатать
Просмотров: 111
part I: The Kiss/Promentory violin theme

e|------------------------------------|
B|----------6-5------5----------------|
G|--------------7------7-5----7-5-----|    2x
D|--7-5h7-------------------------7---|
A|------------------------------------|
E|------------------------------------|


e|------------------0h3---------------|
B|----------5-3h5-------5-5---5-3-5---|
G|--5-4h5-----------------------------|   2x
D|------------------------------------|
A|------------------------------------|
E-------------------------------------|


e|------------------------------------|
B|--6-5h6---6-5h6----8-6-6---6-5-3----|
G|------------------------------------|
D|------------------------------------|
A|------------------------------------|
E|------------------------------------|

e|------------------0h3---------------|
B|--5-3h5---5-3h5-------5-5---5-3-----|
G|--------------------------------5---|
D|------------------------------------|
A|------------------------------------|
E|------------------------------------|

e|------------------------------------|
B|-------------------6-5--------------|
G|--7-5h7---7-5h7--------7------7-7---|
D|----------------------------7-------|
A|------------------------------------|
E|------------------------------------|

e|------------------------------------|
B|-------------------6-5------5-------|
G|--7-5h7--7-5h7---------7------7-5---|
D|------------------------------------|
A|------------------------------------|
E|------------------------------------|

part II: Main Theme - strings

e|---------------------------------------------------------------------------|
B|---------------------------8~---------------10~------8------8~-------------|
G|--10~-----9-7-------7-10-9---------------10------------10-9--------9-9/7~--|
D|--------------7~-----------------------------------------------------------|
A|---------------------------------------------------------------------------|
E|---------------------------------------------------------------------------|

e|---------------------------------------------------------------------------|
B|---------------------------8~---------------10~------8------8~-------------|
G|--10~-----9-7-------7-10-9-----10-9~-----10------------10-9--------9-9/7~--|
D|--------------7~-----------------------------------------------------------|
A|---------------------------------------------------------------------------|
E|---------------------------------------------------------------------------|

e|---------------------------------------------------5~----------------------|
B|-----------------------------------------------------------------8--10~----|
G|--10--9--7~------7--5----------10--9--7~------7--5-----------10------------|
D|-----------------------7~--------------------------------------------------|
A|---------------------------------------------------------------------------|
E|---------------------------------------------------------------------------|

e|---------------------------------------------------------------------------|
B|---8-----------------------------------------------------------------------|
G|------10--9/12-------9--9/7~-----------------------------------------------|
D|---------------------------------------------------------------------------|
A|---------------------------------------------------------------------------|
E|---------------------------------------------------------------------------|


************************************

| /   slide up
| \   slide down
| h   hammer-on
| p   pull-off
| ~   vibrato
| +   harmonic
| x   Mute note
| b   Bend
| pb  Pre-bend
| br  Bend release
| pbr Pre-bend release
| brb Bend release bend

************************************
Добавлено: 19.06.2016
Другие материалы по этой песне:

Страница создана 02.06.2012
http://primanota.ru/trevor-jones/the-last-of-the-mohicans-chords.htm
Привет, Гость.
Предлагаем пройти революционный курс по гитаре.
Подарок от PrimaNota.Ru, забирай!