PrimaNota.ru - самый крупный в мире бесплатный архив песенных текстов, аккордов, табулатур и нот


Trevor Jones - Promentory (feat. Randy Edelman) - таба, видео

Регистрация Запомнить меня
Войти через:  Facebook Google Twitter Vk Yandex Mail.ru

Trevor Jones - Promentory (feat. Randy Edelman) - таба, видео

Печатать
Просмотров: 148
Авторы музыки: Trevor Jones

-------------------------------------------
Promentory by Trevor Jones (Guitar version)
-------------------------------------------
Tabbed by: Steven Cazarez
E-mail: Steven_cazarez@live.com

Tuning -Guitar 1:
(Standard) E B G D A E

Tuning -Guitar 2:
(standard) E B G D A E

************************************

| /   slide up
| \   slide down
| h   hammer-on
| p   pull-off
| ~   vibrato
| ()  Ghost note
| *   Tremolo picking
| #   Play Lightly

************************************

Bear in mind this is my own preferred way of playing this piece,
which has no correspondence with any alleged "correct" way of playing it.

e|-------------------------------------|
B|-------------------------------------|
G|-------------------------------------|
D|----------------%--------------------|
A|-------------------------------------|
E|-------------------------------------|
> Long Rest [0:00]


/--------------------------------------------------------------------------\

 Guitar 1 [0:19]   
e|--------------------------------------|
B|-------------6-5----5-----------------|
G|-----------------7----7-5---7-5-------|
D|--7--7-7-7-----------------------7----|
A|--------------------------------------|
E|--------------------------------------|
       * * *                       #
> Repeat riff x2

 Guitar 1
e|-------------------------------------------|
B|-------------6-5-6--(6)h8-6-5---6-5-6------|
G|--5--5-5-5---------------------------------|
D|-------------------------------------------|
A|-------------------------------------------|
E|-------------------------------------------|
       * * *
> Repeat riff x2

 Guitar 1
e|------------------------------------||-----------------------------------|
B|--6--5-6--6-6--5-6---8-6-5---6-5-3--||--5--3-5--5-5--3-5---8-6-5--5-3----|
G|------------------------------------||--------------------------------5--|
D|------------------------------------||-----------------------------------|
A|------------------------------------||-----------------------------------|
E|------------------------------------||-----------------------------------|
       * *  * *                              * *  * *
 Guitar 1
e|-----------------------------------------|
B|----------------------6-5----------------|
G|--7--5-7--7-7--5-7----------7-5------5---|
D|----------------------------------7------|
A|-----------------------------------------|
E|-----------------------------------------|
            * *
 Guitar 1
e|----------------------------------------|
B|----------------------6-5----5----------|
G|--7--5-7--7-7--5-7---------7---7-5------|
D|----------------------------------------|
A|----------------------------------------|
E|----------------------------------------|
            * *
\--------------------------------------------------------------------------/ Repeat many times


/--------------------------------------------------------------------------\
 
 Guitar 1 [2:26]
e|--------------------------------------|
B|-------------6-5----5-----------------|
G|-----------------7----7-5---7-5-------|
D|--7--7-7-7-----------------------7----|
A|--------------------------------------|
E|--------------------------------------|
       * * *                       #
> Repeat riff x2

 Guitar 2 [not synchronized]
e|--------------------------------------------------------|
B|--------------------------------------------------------|
G|--7--9--10-~-~-~-~-9-7--------7-10---9-12-~-~-~-~-~--~--|
D|-----------------------7-~-~----------------------------|
A|--------------------------------------------------------|
E|--------------------------------------------------------|
      
 Guitar 1
e|-------------------------------------------|
B|-------------6-5-6--(6)h8-6-5---6-5-6------|
G|--5--5-5-5---------------------------------|
D|-------------------------------------------|
A|-------------------------------------------|
E|-------------------------------------------|
       * * *                          
> Repeat riff x2

 Guitar 2 [not synchronized]
e|-----------------------------------------------------|
B|-----------------------------------------------------|
G|--10-14-~-~-~-12-10--9-12-~-~-~----(9)--9\7-~-~-~-~--|
D|-----------------------------------------------------|
A|-----------------------------------------------------|
E|-----------------------------------------------------|

 Guitar 1
e|------------------------------------||-----------------------------------|
B|--6--5-6--6-6--5-6---8-6-5---6-5-3--||--5--3-5--5-5--3-5---8-6-5--5-3----|
G|------------------------------------||--------------------------------5--|
D|------------------------------------||-----------------------------------|
A|------------------------------------||-----------------------------------|
E|------------------------------------||-----------------------------------|
       * *  * *                              * *  * *
 GUitar 1    
e|----------------------------------------|
B|----------------------6-5---------------|
G|--7--5-7--7-7--5-7----------7-5------5--|
D|----------------------------------7-----|
A|----------------------------------------|
E|----------------------------------------|
       * *  * *
 Guitar 1   
e|----------------------------------------|
B|----------------------6-5----5----------|
G|--7--5-7--7-7--5-7---------7---7-5------|
D|----------------------------------------|
A|----------------------------------------|
E|----------------------------------------|
       * *  * *
\---------------------------------------------------------------------------/


/---------------------------------------------------------------------------\
 [2:46]
 Guitar 1
e|--------------------------------------|
B|-------------6-5----5-----------------|
G|-----------------7----7-5---7-5-------|
D|--7--7-7-7-----------------------7----|
A|--------------------------------------|
E|--------------------------------------|
       * * *                       #
> Repeat riff x2

 Guitar 1
e|-------------------------------------------|
B|-------------6-5-6--(6)h8-6-5---6-5-6------|
G|--5--5-5-5---------------------------------|
D|-------------------------------------------|
A|-------------------------------------------|
E|-------------------------------------------|
       * * * 
> Repeat riff x2

 Guitar 1
e|------------------------------------||------------------------------------|
B|--6--5-6--6-6--5-6---8-6-5---6-5-3--||--5--3-5--5-5--3-5---8-6-5--5-3-----|
G|------------------------------------||---------------------------------5--|
D|------------------------------------||------------------------------------|
A|------------------------------------||------------------------------------|
E|------------------------------------||------------------------------------|
       * *  * *                              * *  * *
 Guitar 1  
e|----------------------------------------|
B|----------------------6-5---------------|
G|--7--5-7--7-7--5-7----------7-5------5--|
D|----------------------------------7-----|
A|----------------------------------------|
E|----------------------------------------|
       * *  * *
 Guitar 1
e|----------------------------------------|
B|----------------------6-5----5----------|
G|--7--5-7--7-7--5-7---------7---7-5------|
D|----------------------------------------|
A|----------------------------------------|
E|----------------------------------------|
       * *  * *
\---------------------------------------------------------------------------/ Repeat until End...
Добавлено: 09.11.2013
Другие материалы по этой песне:

Страница создана 29.03.2012
http://primanota.ru/trevor-jones/promentory-chords.htm
Привет, Гость.
Предлагаем пройти революционный курс по гитаре.
Подарок от PrimaNota.Ru, забирай!