PrimaNota.ru - самый крупный в мире бесплатный архив песенных текстов, аккордов, табулатур и нот


Trevor Jones & Randy Edelman - Promentory Last Of The Mohicans - таба, видео

Регистрация Запомнить меня
Войти через:  Facebook Google Twitter Vk Yandex Mail.ru

Trevor Jones & Randy Edelman - Promentory Last Of The Mohicans - таба, видео

Печатать
Просмотров: 31
-------------------------------------------------------------------------------
                             PROMENTORY - LAST OF THE MOHICANS THEME SONG
-------------------------------------------------------------------------------
Tabbed by: an old hippie
E-mail: nothanks@idontwantanyemails.com

Tuning: EADGBe and CAPO on 3rd

Pretty much everything needs to RING OUT/NOT BE MUTED, let it breathe man.
If you know how to finger-sweep "thumb/i/m/r/p" that sounds better than just playing the chord all at once.
Kind of reminds me of "the little drummer boy" (pada loom...2, 3, 4... pada loom...2, 3, 4), let it ring out.

e|---------------------------------------------------------------------------|
B|------------------------------------------1--------0-----------------------|
G|---2~~------2---------0-------------------0--------0--------2-------2------|
D|---2--------2---------0---------0---------2--------0--------2-------2------|(play twice)
A|---0--------0-------------------2---------3--------2--------0-------0------|
E|----------------------3---------3---------3--------3-----------------------|

e|---------------------------------------------0~~---------------------------|
B|----------------------------0--3~~-(3)------1------3--1--0--3~~------------|
G|---5~~--4--2--------2--5------------0-------0------------0------4--2~~--2~~|
D|---2----------2~~-------------------0-------2------------------(2)------2--|(play twice)
A|---0----------0-----0---------------2-------3-------------------0-------0--|
E|----------------------------3-------3-------3------------3-----------------|

e|---------------------------------------------------------------------------|
B|---------------------------------------------------------------------------|
G|--2---2-2---2---5-4-2----2-2-----2---2-2---2---5^4-2--4^2------------------|(quickly to the next)
D|----2-----2------------2-----------2-----2-----------------2---------------|
A|--0--------------------0---------0-------------0------0----0---------------|
E|---------------------------------------------------------------------------|

e|---------------------------------------------------------------------------|
B|---------------------------------------------------------------------------|
G|--2---2--5^4-2-4^2-0---0---------2---2--5^4-2-4^2-0---0--------------------|(quickly to the next)
D|----2----------------5---5^0-------2----------------5---5^0----------------|
A|--0------------------------------0-----------------------------------------|
E|---------------------------------------------------------------------------|

e|---------------------------------------------------------------------------|
B|---------0----0--3-0-0-0---0------------0----0--3-0-0-0---0----------------|
G|--0----0----0------------2------0-----0----0------------2------------------|(quickly to the next)
D|-----0------------------------------0--------------------------------------|
A|---------------------------------------------------------------------------|
E|--3-----------------------------3------------------------------------------|

e|---------------------------------------------------------------------------|
B|--1----1-1----1---3--1-1-1-0-------0----0-0----0-3---0-0-0-----------------|
G|--0----0-0----0---0--0-0-0-0-------0----0-0----0-0---0-0-0-----------------|
D|--2--2------2-----------------2----0--0------0--------------2--0-----------|
A|--3--------------------------------2---------------------------------------|
E|--3--------------------------------3---------------------------------------|

e|---------------------------------------------------------------------------|
B|---------------------------------------------------------------------------|
G|--2---2-2---2---5-4-2----2-2-----2---2-2---2---5^4-2--4^2------------------|(quickly to the next)
D|----2-----2------------2-----------2-----2-----------------2---------------|
A|--0--------------------0---------0-------------0------0----0---------------|
E|---------------------------------------------------------------------------|

e|---------------------------------------------------------------------------|
B|---------------------------------------------------------------------------|
G|--2---2--5^4-2-4^2-0---0---------2---2--5^4-2-4^2-0---0--------------------|(quickly to the next)
D|----2----------------5---5^0-------2----------------5---5^0----------------|
A|--0------------------------------0-----------------------------------------|
E|---------------------------------------------------------------------------|

e|---------------------------------------------------------------------------|
B|---------0----0--3-0-0-0---0------------0----0--3-0-0-0---0----------------|
G|--0----0----0------------2------0-----0----0------------2------------------|(quickly to the next)
D|-----0------------------------------0--------------------------------------|
A|---------------------------------------------------------------------------|
E|--3-----------------------------3------------------------------------------|

e|---------------------------------------------------------------------------|
B|--1----1-1----1---3--1-1-1-0-------0----0-0----0-3---0-0-0-----------------|
G|--0----0-0----0---0--0-0-0-0-------0----0-0----0-0---0-0-0-----------------|
D|--2--2------2-----------------2----0--0------0--------------2-0---2--2~~---|(then slow to the end)
A|--3--------------------------------2------------------------------2--2-----|
E|--3--------------------------------3------------------------------0--0-----|

e|---------------------------------------------0~~---------------------------|
B|----------------------------0--3~~-(3)------1------3--1--0--3~~------------|
G|---5~~--4--2--------2--5------------0-------0------------0------4--2~~--2~~|
D|---2----------2~~-------------------0-------2------------------(2)------2--|(that's how I end it..in tears)
A|---0----------0-----0---------------2-------3-------------------0-------0--|
E|----------------------------3-------3-------3------------3-----------------|

************************************

| /   slide up
| \   slide down
| h   hammer-on
| p   pull-off
| ~   vibrato
| +   harmonic
| x   Mute note
| b   Bend
| pb  Pre-bend
| br  Bend release
| pbr Pre-bend release
| brb Bend release bend

************************************
Добавлено: 05.05.2016
Другие материалы по этой песне:
  • Аккорды и текст

Страница создана 05.05.2016
http://primanota.ru/trevor-jones-and-randy-edelman/promentory-last-of-mohicans-chords.htm
Привет, Гость.
Предлагаем пройти революционный курс по гитаре.
Подарок от PrimaNota.Ru, забирай!