PrimaNota.ru - самый крупный в мире бесплатный архив песенных текстов, аккордов, табулатур и нот


Trevor Jones & Randy Edelman - The Last Of The Mohicans Theme - таба, видео

Регистрация Запомнить меня
Войти через:  Facebook Google Twitter Vk Yandex Mail.ru

Trevor Jones & Randy Edelman - The Last Of The Mohicans Theme - таба, видео

Печатать
Просмотров: 76
The theme to Last of the Mohicans (melody)

by ear, but completely correct

You can add styling (slides, pulloffs, etc) where and if you want it.

Notes farther apart = slowing down (I didn't mess up during tabbing)


|-------------------------------------------------------------------------|
|------------------------------8----------10-------8------8---------------|
|--10-------9-7---------7-10-9---------10------------10-9---------9-9-7---|
|---------------7---------------------------------------------------------|
|-------------------------------------------------------------------------|
|-------------------------------------------------------------------------|


|--------------------------------------------------------------|
|---------------------------------------------------------10---|
|--10-9-7------------------10-9-7------------------7--10-------|
|---------------10-7--------------------10-7-------------------|
|--------------------------------------------------------------|
|--------------------------------------------------------------|


|---------------------------|
|--8---------8--------------|
|-----10--9----------9--7---|
|---------------------------|
|---------------------------|
|---------------------------|


"The Kiss" and "Promentory" (same melody)

|----------|----------|----------|-----------|
|----------|----------|----------|-----------|
|----------|-10---9-7-|-9---7----|-7---------|
|--7---7-7-|----------|-------10-|-----9-----| 2x
|----------|----------|----------|-------10--|
|----------|----------|----------|-----------|


|------------|---------|---------|----------|
|------------|---------|-8-------|----------|
|------------|-9---7-9-|-----9-9-|-9---7-9--|
|--10---9-10-|---------|---------|----------| 2x
|------------|---------|---------|----------|
|------------|---------|---------|----------|


|-------------|------------|------------|-----------|
|-------------|------------|------------|-----------|
|--10---10-10-|-10---10-10-|-12---10-10-|-10---9-7--|
|-------------|------------|------------|-----------|
|-------------|------------|------------|-----------|
|-------------|------------|------------|-----------|


|----------|---------|----------|-----------|
|----------|---------|----------|-----------|
|--9---9-9-|-9---9-9-|-12---9-9-|-9---7-----|
|----------|---------|----------|-------10--|
|----------|---------|----------|-----------|
|----------|---------|----------|-----------|


|-----------|----------|----------|----------|
|-----------|----------|----------|----------|
|--7------7-|-7------7-|-10---9-7-|-----7-7--|
|------10---|-----10---|----------|-7--------|
|-----------|----------|----------|----------|
|-----------|----------|----------|----------|


|-----------|----------|----------|------------|
|-----------|----------|----------|------------|
|--7------7-|-7------7-|-10---9-7-|-9----7-----|
|------10---|-----10---|----------|--------10--|
|-----------|----------|----------|------------|
|-----------|----------|----------|------------|

Lather, rinse, repeat! Enjoy!

tabbed by ICP
Добавлено: 05.05.2016
Другие материалы по этой песне:
  • Аккорды и текст

Страница создана 05.05.2016
http://primanota.ru/trevor-jones-and-randy-edelman/last-of-mohicans-theme-chords.htm
Привет, Гость.
Предлагаем пройти революционный курс по гитаре.
Подарок от PrimaNota.Ru, забирай!