PrimaNota.ru - самый крупный в мире бесплатный архив песенных текстов, аккордов, табулатур и нот


Trevor James Musical Sound - Keep Calm Carry On - аккорды и текст, видео

Регистрация Запомнить меня
Войти через:  Facebook Google Twitter Vk Yandex Mail.ru

Trevor James Musical Sound - Keep Calm Carry On - аккорды и текст, видео

Печатать
Просмотров: 51
Новый альбом группы 'Черный Кузнец' по культовому сериалу 'Сверхъестественное'!
Keep Calm Carry On
Trevor James Musical Sound
Keep Calm, Carry On

[Intro riff]

e|------------------------------------------------------------------------------|
B|----10--10---10---10----10---10---10---10-------------------------------------|
G|----9----8----7----8-----9----8----7----6-------------------------------------|
D|----7----7----7----7-----7----7----7----7-------------------------------------|
A|------------------------------------------------------------------------------|
E|------------------------------------------------------------------------------|


[Hook riff]

e|------------------------------------------------------------------------------|
B|----6-6---6----9--9---9----4-4--4----7-4--------------------------------------|
G|----7-7---7----10-10--10---5-5--5----5-5--------------------------------------|
D|------------------------------------------------------------------------------|
A|------------------------------------------------------------------------------|
E|------------------------------------------------------------------------------|


[Intro]

N.C.
*intro riff*
*hook riff*


[Verse 1]

A                          C    
I'm shaking from uncertain times, I know that we can unwind 
G                             A
The spider's web we made, I promise myself I'll make a change 
A                                    C
So hold down the fort for what it's worth, It's so cold it's a hard rebirth
G                                       A
Somebody hold my hand hold on tight, I'm gonna grow my wings I'm gonna fly


[Bridge]

A
There's still some hope for this one, this thing is one just let it go
Let it go just let it go for what it's worth just let go


[Chorus]

A            C      D      A              C   D
Keep calm and carry on, it won't be long it won't be long
A                    C                  G                       D
Until the sun falls down hard on me I'm gonna tear up this world
A            C             D 
One step at a time, one step at a time
D
Keep calm and carry on


[Refrain]

N.C.
*hook riff*
N.C.
There's a point in this time we're given here
N.C.
Where we have to justify all of our actions 
N.C.
Past, present and future
N.C.
In solitude we reflect on all of our shortcomings
N.C.
All of our flaws, all the achievements we've earned
N.C.
And we have to take account for everything we're striving towards 
                                D
Will you be disappointed, or strap up your boots and walk towards your destiny 


[Verse 2]

A                       C       
I won't be the odd one out, I can't let this thing out from me
G               A
It's bittersweet, it's serendipity 
A                       
I feel it in my flesh and skin
C                       
I feel that ink, that ink in my bone
G                         C
There's no sympathy for me and that's how it's going to be

A             C         G   A
Yeah, woah yeah woah yeah oh no
A               C               G
Yeah yeah yeah, no, there's no sympathy for me
A
There's no sympathy for me


[Chorus]

A            C      D      A              C   D
Keep calm and carry on, it won't be long it won't be long
A                    C                  G                       D
Until the sun falls down hard on me I'm gonna tear up this world
A            C             D 
One step at a time, one step at a time
D
Keep calm and carry on

A            C      D      A              C   D
Keep calm and carry on, it won't be long it won't be long
A                    C                  G                       D
Until the sun falls down hard on me I'm gonna tear up this world
A            C             D 
One step at a time, one step at a time
D
Keep calm and carry on 
Добавлено: 20.04.2018
Другие материалы по этой песне:
  • Аккорды и текст

Страница создана 20.04.2018
http://primanota.ru/trevor-james-musical-sound/keep-calm-carry-on-chords.htm
Привет, Гость.
Предлагаем пройти революционный курс по гитаре.
Подарок от PrimaNota.Ru, забирай!