PrimaNota.ru - самый крупный в мире бесплатный архив песенных текстов, аккордов, табулатур и нот


Trevor Hall - Just In Time - аккорды и текст, видео

Регистрация Запомнить меня
Войти через:  Facebook Google Twitter Vk Yandex Mail.ru

Trevor Hall - Just In Time - аккорды и текст, видео

Печатать
Просмотров: 123
Just In Time
Trevor Hall
So. As far as the tab part goes, its just the tune and I would say only 90% of its 
correct just because of timing, but the chords however are perfect (I saw him live in concert).

Standard tuning, no capo.

Intro:

E, A x4

-------------------------|
-------------------------|
--1-2-1-2-4-1-2-1--------|
-------------------------|
-------------------------|
-------------------------|


E
Well I woke up in a dream, a girl I see
A
What is the language of your poetry
E
I love the way your tongue tells stories of the sea
A
You swallow all my diamonds spit them out as fantasies
Asus2
Queen bee
A
Lovely

E
Well I hopped a couple of trains, guitar in hand
A
Searching for your bee hive in another mystic land
E
And I hallucinate see all these stars they form a shed
A
With in my heart is an earthquake, shake me love until I break

Asus2
What have I found
A
Glory bound

COR:

See I jumped off....
-----------------------------------|
-----------------------------------|
----------1-4-6--------------------|
--1--2-----------4-4-4-6-6-4-2-----|
4----------------------------------|
-----------------------------------|

E   C#m
See I jumped off
         A            E
And I fell for ya just in time

E      C#m                    A               E
With out your love, this old soul won't come to life


Your melody harps in the trees...
-----------------------------------------------------------------------------|
--5-4-2-2-0-2-0-0-0-2-0---0--------------------------------------------------|
-------------------------------1---1-------------------2-1----------2-1------|
--------------------------------------4----1-2---2-2-------2-2-2-------2-4-2-|
-----------------------------------------4-----------------------------------|
-----------------------------------------------------------------------------|

      C#m                    E                      Asus2
Your melody harps in the trees wonders the seas of my mind
C#m           A                                                              E
I've told you once, I've been searching for you and I found you just in time.

E, A, E x2

E       A             E
Put to shame the sunshine
E           A               E
Well Ive been lost for a long time
C#m         A
Take me I'm shy
C#m                A
And these stars burn while




E, A, E x2

E   C#m
See I jumped off
         A            E
And I fell for ya just in time

E      C#m                    A               E
With out your love, this old soul won't come to life


Your melody harps in the trees...
-----------------------------------------------------------------------------|
--5-4-2-2-0-2-0-0-0-2-0---0--------------------------------------------------|
-------------------------------1---1-------------------2-1----------2-1------|
--------------------------------------4----1-2---2-2-------2-2-2-------2-4-2-|
-----------------------------------------4-----------------------------------|
-----------------------------------------------------------------------------|

      A                    E                      Asus2
Your melody harps in the trees wonders the seas of my mind
C#m           A                                                              E
I've told you once, I've been searching for you and I found you just in time.
Добавлено: 18.11.2013
Другие материалы по этой песне:
  • Аккорды и текст

Страница создана 18.11.2013
http://primanota.ru/trevor-hall/just-in-time-chords.htm
Привет, Гость.
Предлагаем пройти революционный курс по гитаре.
Подарок от PrimaNota.Ru, забирай!